  0
SECTION
  2
HEADER
  9
$ACADVER
  1
AC1015
  9
$ACADMAINTVER
 70
     6
  9
$DWGCODEPAGE
  3
ANSI_1254
  9
$INSBASE
 10
0.0
 20
0.0
 30
0.0
  9
$EXTMIN
 10
0.0
 20
0.0
 30
0.0
  9
$EXTMAX
 10
279.4
 20
215.9
 30
0.0
  9
$LIMMIN
 10
0.0
 20
0.0
  9
$LIMMAX
 10
279.4
 20
215.9
  9
$ORTHOMODE
 70
     0
  9
$REGENMODE
 70
     1
  9
$FILLMODE
 70
     1
  9
$QTEXTMODE
 70
     0
  9
$MIRRTEXT
 70
     1
  9
$LTSCALE
 40
1.0
  9
$ATTMODE
 70
     1
  9
$TEXTSIZE
 40
3.5
  9
$TRACEWID
 40
1.0
  9
$TEXTSTYLE
  7
Standard
  9
$CLAYER
  8
0
  9
$CELTYPE
  6
ByLayer
  9
$CECOLOR
 62
   256
  9
$CELTSCALE
 40
1.0
  9
$DISPSILH
 70
     0
  9
$DIMSCALE
 40
1.0
  9
$DIMASZ
 40
3.5
  9
$DIMEXO
 40
1.0
  9
$DIMDLI
 40
3.75
  9
$DIMRND
 40
0.0
  9
$DIMDLE
 40
0.0
  9
$DIMEXE
 40
1.0
  9
$DIMTP
 40
0.0
  9
$DIMTM
 40
0.0
  9
$DIMTXT
 40
3.5
  9
$DIMCEN
 40
2.5
  9
$DIMTSZ
 40
0.0
  9
$DIMTOL
 70
     0
  9
$DIMLIM
 70
     0
  9
$DIMTIH
 70
     1
  9
$DIMTOH
 70
     1
  9
$DIMSE1
 70
     0
  9
$DIMSE2
 70
     0
  9
$DIMTAD
 70
     1
  9
$DIMZIN
 70
     0
  9
$DIMBLK
  1

  9
$DIMASO
 70
     1
  9
$DIMSHO
 70
     1
  9
$DIMPOST
  1

  9
$DIMAPOST
  1

  9
$DIMALT
 70
     0
  9
$DIMALTD
 70
     3
  9
$DIMALTF
 40
0.0393700787
  9
$DIMLFAC
 40
1.0
  9
$DIMTOFL
 70
     1
  9
$DIMTVP
 40
0.0
  9
$DIMTIX
 70
     0
  9
$DIMSOXD
 70
     0
  9
$DIMSAH
 70
     0
  9
$DIMBLK1
  1

  9
$DIMBLK2
  1

  9
$DIMSTYLE
  2
ISO-25
  9
$DIMCLRD
 70
     0
  9
$DIMCLRE
 70
     0
  9
$DIMCLRT
 70
     0
  9
$DIMTFAC
 40
1.0
  9
$DIMGAP
 40
1.524
  9
$DIMJUST
 70
     0
  9
$DIMSD1
 70
     0
  9
$DIMSD2
 70
     0
  9
$DIMTOLJ
 70
     0
  9
$DIMTZIN
 70
     0
  9
$DIMALTZ
 70
     0
  9
$DIMALTTZ
 70
     0
  9
$DIMUPT
 70
     0
  9
$DIMDEC
 70
     2
  9
$DIMTDEC
 70
     2
  9
$DIMALTU
 70
     2
  9
$DIMALTTD
 70
     3
  9
$DIMTXSTY
  7
Standard
  9
$DIMAUNIT
 70
     0
  9
$DIMADEC
 70
     2
  9
$DIMALTRND
 40
0.0
  9
$DIMAZIN
 70
     0
  9
$DIMDSEP
 70
    44
  9
$DIMATFIT
 70
     3
  9
$DIMFRAC
 70
     0
  9
$DIMLDRBLK
  1

  9
$DIMLUNIT
 70
     2
  9
$DIMLWD
 70
    -2
  9
$DIMLWE
 70
    -2
  9
$DIMTMOVE
 70
     0
  9
$LUNITS
 70
     2
  9
$LUPREC
 70
     2
  9
$SKETCHINC
 40
1.0
  9
$FILLETRAD
 40
10.0
  9
$AUNITS
 70
     0
  9
$AUPREC
 70
     2
  9
$MENU
  1
.
  9
$ELEVATION
 40
0.0
  9
$PELEVATION
 40
0.0
  9
$THICKNESS
 40
0.0
  9
$LIMCHECK
 70
     0
  9
$CHAMFERA
 40
0.0
  9
$CHAMFERB
 40
0.0
  9
$CHAMFERC
 40
0.0
  9
$CHAMFERD
 40
0.0
  9
$SKPOLY
 70
     0
  9
$TDCREATE
 40
2459741.614447685
  9
$TDUCREATE
 40
2459741.489447685
  9
$TDUPDATE
 40
2459741.614447917
  9
$TDUUPDATE
 40
2459741.489447917
  9
$TDINDWG
 40
0.0000000116
  9
$TDUSRTIMER
 40
0.0000000116
  9
$USRTIMER
 70
     1
  9
$ANGBASE
 50
0.0
  9
$ANGDIR
 70
     0
  9
$PDMODE
 70
     0
  9
$PDSIZE
 40
-1.0
  9
$PLINEWID
 40
0.0
  9
$SPLFRAME
 70
     0
  9
$SPLINETYPE
 70
     6
  9
$SPLINESEGS
 70
     8
  9
$HANDSEED
  5
13B
  9
$SURFTAB1
 70
     6
  9
$SURFTAB2
 70
     6
  9
$SURFTYPE
 70
     6
  9
$SURFU
 70
     6
  9
$SURFV
 70
     6
  9
$UCSBASE
  2

  9
$UCSNAME
  2

  9
$UCSORG
 10
0.0
 20
0.0
 30
0.0
  9
$UCSXDIR
 10
1.0
 20
0.0
 30
0.0
  9
$UCSYDIR
 10
0.0
 20
1.0
 30
0.0
  9
$UCSORTHOREF
  2

  9
$UCSORTHOVIEW
 70
     0
  9
$UCSORGTOP
 10
0.0
 20
0.0
 30
0.0
  9
$UCSORGBOTTOM
 10
0.0
 20
0.0
 30
0.0
  9
$UCSORGLEFT
 10
0.0
 20
0.0
 30
0.0
  9
$UCSORGRIGHT
 10
0.0
 20
0.0
 30
0.0
  9
$UCSORGFRONT
 10
0.0
 20
0.0
 30
0.0
  9
$UCSORGBACK
 10
0.0
 20
0.0
 30
0.0
  9
$PUCSBASE
  2

  9
$PUCSNAME
  2

  9
$PUCSORG
 10
0.0
 20
0.0
 30
0.0
  9
$PUCSXDIR
 10
1.0
 20
0.0
 30
0.0
  9
$PUCSYDIR
 10
0.0
 20
1.0
 30
0.0
  9
$PUCSORTHOREF
  2

  9
$PUCSORTHOVIEW
 70
     0
  9
$PUCSORGTOP
 10
0.0
 20
0.0
 30
0.0
  9
$PUCSORGBOTTOM
 10
0.0
 20
0.0
 30
0.0
  9
$PUCSORGLEFT
 10
0.0
 20
0.0
 30
0.0
  9
$PUCSORGRIGHT
 10
0.0
 20
0.0
 30
0.0
  9
$PUCSORGFRONT
 10
0.0
 20
0.0
 30
0.0
  9
$PUCSORGBACK
 10
0.0
 20
0.0
 30
0.0
  9
$USERI1
 70
     0
  9
$USERI2
 70
     0
  9
$USERI3
 70
     0
  9
$USERI4
 70
     0
  9
$USERI5
 70
     0
  9
$USERR1
 40
0.0
  9
$USERR2
 40
0.0
  9
$USERR3
 40
0.0
  9
$USERR4
 40
0.0
  9
$USERR5
 40
0.0
  9
$WORLDVIEW
 70
     1
  9
$SHADEDGE
 70
     3
  9
$SHADEDIF
 70
    70
  9
$TILEMODE
 70
     1
  9
$MAXACTVP
 70
    64
  9
$PINSBASE
 10
0.0
 20
0.0
 30
0.0
  9
$PLIMCHECK
 70
     0
  9
$PEXTMIN
 10
1.0000000000E+20
 20
1.0000000000E+20
 30
1.0000000000E+20
  9
$PEXTMAX
 10
-1.0000000000E+20
 20
-1.0000000000E+20
 30
-1.0000000000E+20
  9
$PLIMMIN
 10
0.0
 20
0.0
  9
$PLIMMAX
 10
420.0
 20
297.0
  9
$UNITMODE
 70
     0
  9
$VISRETAIN
 70
     1
  9
$PLINEGEN
 70
     0
  9
$PSLTSCALE
 70
     1
  9
$TREEDEPTH
 70
  3020
  9
$CMLSTYLE
  2
Standard
  9
$CMLJUST
 70
     0
  9
$CMLSCALE
 40
20.0
  9
$PROXYGRAPHICS
 70
     1
  9
$MEASUREMENT
 70
     1
  9
$CELWEIGHT
370
    -1
  9
$ENDCAPS
280
     0
  9
$JOINSTYLE
280
     0
  9
$LWDISPLAY
290
     1
  9
$INSUNITS
 70
     4
  9
$HYPERLINKBASE
  1

  9
$STYLESHEET
  1

  9
$XEDIT
290
     1
  9
$CEPSNTYPE
380
     0
  9
$PSTYLEMODE
290
     1
  9
$FINGERPRINTGUID
  2
{f9ef495c-7d85-4202-bec5-68d7731245a5}
  9
$VERSIONGUID
  2
{FAEB1C32-E019-11D5-929B-00C0DF256EC4}
  9
$EXTNAMES
290
     1
  9
$PSVPSCALE
 40
0.0
  9
$OLESTARTUP
290
     0
  0
ENDSEC
  0
SECTION
  2
CLASSES
  0
CLASS
  1
ACDBDICTIONARYWDFLT
  2
AcDbDictionaryWithDefault
  3
ObjectDBX Classes
 90
        0
280
     0
281
     0
  0
CLASS
  1
VISUALSTYLE
  2
AcDbVisualStyle
  3
ObjectDBX Classes
 90
     4095
280
     0
281
     0
  0
CLASS
  1
MATERIAL
  2
AcDbMaterial
  3
ObjectDBX Classes
 90
     1153
280
     0
281
     0
  0
CLASS
  1
SCALE
  2
AcDbScale
  3
ObjectDBX Classes
 90
     1153
280
     0
281
     0
  0
CLASS
  1
TABLESTYLE
  2
AcDbTableStyle
  3
ObjectDBX Classes
 90
     4095
280
     0
281
     0
  0
CLASS
  1
MLEADERSTYLE
  2
AcDbMLeaderStyle
  3
ACDB_MLEADERSTYLE_CLASS
 90
     4095
280
     0
281
     0
  0
CLASS
  1
SUN
  2
AcDbSun
  3
SCENEOE
 90
     1153
280
     0
281
     0
  0
CLASS
  1
ACDBPLACEHOLDER
  2
AcDbPlaceHolder
  3
ObjectDBX Classes
 90
        0
280
     0
281
     0
  0
CLASS
  1
LAYOUT
  2
AcDbLayout
  3
ObjectDBX Classes
 90
        0
280
     0
281
     0
  0
ENDSEC
  0
SECTION
  2
TABLES
  0
TABLE
  2
VPORT
  5
8
330
0
100
AcDbSymbolTable
 70
     1
  0
VPORT
  5
29
330
8
100
AcDbSymbolTableRecord
100
AcDbViewportTableRecord
  2
*Active
 70
     0
 10
0.0
 20
0.0
 11
1.0
 21
1.0
 12
139.7
 22
107.95
 13
0.0
 23
0.0
 14
10.0
 24
10.0
 15
10.0
 25
10.0
 16
0.0
 26
0.0
 36
1.0
 17
0.0
 27
0.0
 37
0.0
 40
215.9
 41
1.2941176471
 42
50.0
 43
0.0
 44
0.0
 50
0.0
 51
0.0
 71
     0
 72
  2000
 73
     1
 74
     3
 75
     0
 76
     0
 77
     0
 78
     0
281
     0
 65
     1
110
0.0
120
0.0
130
0.0
111
1.0
121
0.0
131
0.0
112
0.0
122
1.0
132
0.0
 79
     0
146
0.0
  0
ENDTAB
  0
TABLE
  2
LTYPE
  5
5
330
0
100
AcDbSymbolTable
 70
     6
  0
LTYPE
  5
14
330
5
100
AcDbSymbolTableRecord
100
AcDbLinetypeTableRecord
  2
ByBlock
 70
     0
  3

 72
    65
 73
     0
 40
0.0
  0
LTYPE
  5
15
330
5
100
AcDbSymbolTableRecord
100
AcDbLinetypeTableRecord
  2
ByLayer
 70
     0
  3

 72
    65
 73
     0
 40
0.0
  0
LTYPE
  5
16
330
5
100
AcDbSymbolTableRecord
100
AcDbLinetypeTableRecord
  2
Continuous
 70
     0
  3
Solid line
 72
    65
 73
     0
 40
0.0
  0
LTYPE
  5
6E
330
5
100
AcDbSymbolTableRecord
100
AcDbLinetypeTableRecord
  2
HIDDEN
 70
     0
  3
Hidden __ __ __ __ __ __ __ __ __ __ __ __ __ __
 72
    65
 73
     2
 40
1.905
 49
1.27
 74
     0
 49
-0.635
 74
     0
  0
LTYPE
  5
6F
330
5
100
AcDbSymbolTableRecord
100
AcDbLinetypeTableRecord
  2
PHANTOM
 70
     0
  3
Phantom ______  __  __  ______  __  __  ______
 72
    65
 73
     6
 40
12.7
 49
6.35
 74
     0
 49
-1.27
 74
     0
 49
1.27
 74
     0
 49
-1.27
 74
     0
 49
1.27
 74
     0
 49
-1.27
 74
     0
  0
LTYPE
  5
70
330
5
100
AcDbSymbolTableRecord
100
AcDbLinetypeTableRecord
  2
CENTER
 70
     0
  3
Center ____ _ ____ _ ____ _ ____ _ ____ _ ____
 72
    65
 73
     4
 40
10.16
 49
6.35
 74
     0
 49
-1.27
 74
     0
 49
1.27
 74
     0
 49
-1.27
 74
     0
  0
LTYPE
  5
71
330
5
100
AcDbSymbolTableRecord
100
AcDbLinetypeTableRecord
  2
CENTERX2
 70
     0
  3
Center (2x) ________  __  ________  __  _____
 72
    65
 73
     4
 40
20.32
 49
12.7
 74
     0
 49
-2.54
 74
     0
 49
2.54
 74
     0
 49
-2.54
 74
     0
  0
LTYPE
  5
72
330
5
100
AcDbSymbolTableRecord
100
AcDbLinetypeTableRecord
  2
DOT2
 70
     0
  3
Dot (.5x) ........................................
 72
    65
 73
     2
 40
0.635
 49
0.0
 74
     0
 49
-0.635
 74
     0
  0
ENDTAB
  0
TABLE
  2
LAYER
  5
2
330
0
100
AcDbSymbolTable
 70
    17
  0
LAYER
  5
10
330
2
100
AcDbSymbolTableRecord
100
AcDbLayerTableRecord
  2
0
 70
     0
 62
     7
  6
Continuous
370
    -3
390
F
  0
LAYER
  5
73
330
2
100
AcDbSymbolTableRecord
100
AcDbLayerTableRecord
  2
FORMAT
 70
     0
 62
     7
  6
Continuous
370
    -3
390
F
  0
LAYER
  5
74
330
2
100
AcDbSymbolTableRecord
100
AcDbLayerTableRecord
  2
YARDIMCI_GEOMETRI
 70
     0
 62
    -6
  6
Continuous
290
     0
370
    -3
390
F
  0
LAYER
  5
75
330
2
100
AcDbSymbolTableRecord
100
AcDbLayerTableRecord
  2
SAYFA_CERCEVESI
 70
     0
 62
     7
  6
Continuous
370
    25
390
F
  0
LAYER
  5
76
330
2
100
AcDbSymbolTableRecord
100
AcDbLayerTableRecord
  2
ANTET
 70
     0
 62
     7
  6
Continuous
370
    -3
390
F
  0
LAYER
  5
77
330
2
100
AcDbSymbolTableRecord
100
AcDbLayerTableRecord
  2
OLCU
 70
     0
 62
   150
  6
Continuous
370
    -3
390
F
  0
LAYER
  5
78
330
2
100
AcDbSymbolTableRecord
100
AcDbLayerTableRecord
  2
METIN
 70
     0
 62
    96
  6
Continuous
370
    -3
390
F
  0
LAYER
  5
79
330
2
100
AcDbSymbolTableRecord
100
AcDbLayerTableRecord
  2
BALON
 70
     0
 62
     5
  6
Continuous
370
    -3
390
F
  0
LAYER
  5
7A
330
2
100
AcDbSymbolTableRecord
100
AcDbLayerTableRecord
  2
VURGU
 70
     0
 62
     7
  6
Continuous
370
    -3
390
F
  0
LAYER
  5
7B
330
2
100
AcDbSymbolTableRecord
100
AcDbLayerTableRecord
  2
SILIK
 70
     0
 62
     7
  6
Continuous
370
    -3
390
F
  0
LAYER
  5
7C
330
2
100
AcDbSymbolTableRecord
100
AcDbLayerTableRecord
  2
MODEL
 70
     0
 62
     7
  6
Continuous
370
    -3
390
F
  0
LAYER
  5
7D
330
2
100
AcDbSymbolTableRecord
100
AcDbLayerTableRecord
  2
DETAYLANDıRMA
 70
     0
 62
   190
  6
Continuous
370
    -3
390
F
  0
LAYER
  5
7E
330
2
100
AcDbSymbolTableRecord
100
AcDbLayerTableRecord
  2
TOLERANS
 70
     0
 62
   230
  6
Continuous
370
    -3
390
F
  0
LAYER
  5
7F
330
2
100
AcDbSymbolTableRecord
100
AcDbLayerTableRecord
  2
MERKEZ_CIZGILERI
 70
     0
 62
    30
  6
Continuous
370
    -3
390
F
  0
LAYER
  5
80
330
2
100
AcDbSymbolTableRecord
100
AcDbLayerTableRecord
  2
KESIT-DETAY_CIZGILERI
 70
     0
 62
     7
  6
Continuous
370
    -3
390
F
  0
LAYER
  5
81
330
2
100
AcDbSymbolTableRecord
100
AcDbLayerTableRecord
  2
\U+041E\U+0421\U+0415\U+0412\U+042B\U+0415
 70
     0
 62
     7
  6
Continuous
370
    -3
390
F
  0
LAYER
  5
82
330
2
100
AcDbSymbolTableRecord
100
AcDbLayerTableRecord
  2
\U+0412\U+041E\U+0414\U+042F\U+041D\U+042B\U+0415_\U+0417\U+041D\U+0410\U+041A\U+0418
 70
     0
 62
    11
  6
Continuous
370
    -3
390
F
  0
ENDTAB
  0
TABLE
  2
STYLE
  5
3
330
0
100
AcDbSymbolTable
 70
     1
  0
STYLE
  5
11
330
3
100
AcDbSymbolTableRecord
100
AcDbTextStyleTableRecord
  2
Standard
 70
     0
 40
0.0
 41
1.0
 50
0.0
 71
     0
 42
3.5
  3
txt
  4

  0
ENDTAB
  0
TABLE
  2
VIEW
  5
6
330
0
100
AcDbSymbolTable
 70
     0
  0
ENDTAB
  0
TABLE
  2
UCS
  5
7
330
0
100
AcDbSymbolTable
 70
     0
  0
ENDTAB
  0
TABLE
  2
APPID
  5
9
330
0
100
AcDbSymbolTable
 70
     1
  0
APPID
  5
12
330
9
100
AcDbSymbolTableRecord
100
AcDbRegAppTableRecord
  2
ACAD
 70
     0
  0
ENDTAB
  0
TABLE
  2
DIMSTYLE
  5
A
330
0
100
AcDbSymbolTable
 70
     1
100
AcDbDimStyleTable
  0
DIMSTYLE
105
27
330
A
100
AcDbSymbolTableRecord
100
AcDbDimStyleTableRecord
  2
ISO-25
 70
     0
 41
2.5
 42
0.625
 43
3.75
 44
1.25
 73
     0
 74
     0
 77
     1
 78
     8
140
2.5
141
2.5
143
0.0393700787
147
0.625
171
     3
172
     1
178
     0
271
     2
272
     2
274
     3
278
    44
283
     0
284
     8
340
11
  0
ENDTAB
  0
TABLE
  2
BLOCK_RECORD
  5
1
330
0
100
AcDbSymbolTable
 70
     5
  0
BLOCK_RECORD
  5
1F
330
1
100
AcDbSymbolTableRecord
100
AcDbBlockTableRecord
  2
*Model_Space
340
22
  0
BLOCK_RECORD
  5
1B
330
1
100
AcDbSymbolTableRecord
100
AcDbBlockTableRecord
  2
*Paper_Space
340
1E
  0
BLOCK_RECORD
  5
23
330
1
100
AcDbSymbolTableRecord
100
AcDbBlockTableRecord
  2
*Paper_Space0
340
26
  0
BLOCK_RECORD
  5
C4
330
1
100
AcDbSymbolTableRecord
100
AcDbBlockTableRecord
  2
SW_CENTERMARKSYMBOL_0
340
0
102
{BLKREFS
331
CF
102
}
  0
BLOCK_RECORD
  5
EF
330
1
100
AcDbSymbolTableRecord
100
AcDbBlockTableRecord
  2
SW_CENTERMARKSYMBOL_1
340
0
102
{BLKREFS
331
FA
102
}
  0
BLOCK_RECORD
  5
FB
330
1
100
AcDbSymbolTableRecord
100
AcDbBlockTableRecord
  2
SW_CENTERMARKSYMBOL_2
340
0
102
{BLKREFS
331
106
102
}
  0
BLOCK_RECORD
  5
107
330
1
100
AcDbSymbolTableRecord
100
AcDbBlockTableRecord
  2
SW_CENTERMARKSYMBOL_3
340
0
102
{BLKREFS
331
112
102
}
  0
ENDTAB
  0
ENDSEC
  0
SECTION
  2
BLOCKS
  0
BLOCK
  5
20
330
1F
100
AcDbEntity
  8
0
100
AcDbBlockBegin
  2
*Model_Space
 70
     0
 10
0.0
 20
0.0
 30
0.0
  3
*Model_Space
  1

  0
ENDBLK
  5
21
330
1F
100
AcDbEntity
  8
0
100
AcDbBlockEnd
  0
BLOCK
  5
1C
330
1B
100
AcDbEntity
 67
     1
  8
0
100
AcDbBlockBegin
  2
*Paper_Space
 70
     0
 10
0.0
 20
0.0
 30
0.0
  3
*Paper_Space
  1

  0
ENDBLK
  5
1D
330
1B
100
AcDbEntity
 67
     1
  8
0
100
AcDbBlockEnd
  0
BLOCK
  5
24
330
23
100
AcDbEntity
  8
0
100
AcDbBlockBegin
  2
*Paper_Space0
 70
     0
 10
0.0
 20
0.0
 30
0.0
  3
*Paper_Space0
  1

  0
ENDBLK
  5
25
330
23
100
AcDbEntity
  8
0
100
AcDbBlockEnd
  0
BLOCK
  5
C5
330
C4
100
AcDbEntity
  8
0
100
AcDbBlockBegin
  2
SW_CENTERMARKSYMBOL_0
 70
     0
 10
0.0
 20
0.0
 30
0.0
  3
SW_CENTERMARKSYMBOL_0
  1

  0
LINE
  5
C7
330
C4
100
AcDbEntity
  8
FORMAT
 62
     0
100
AcDbLine
 10
0.0
 20
0.0
 30
0.0
 11
0.0
 21
2.5
 31
0.0
  0
LINE
  5
C8
330
C4
100
AcDbEntity
  8
FORMAT
 62
     0
100
AcDbLine
 10
0.0
 20
0.0
 30
0.0
 11
-2.5
 21
0.0
 31
0.0
  0
LINE
  5
C9
330
C4
100
AcDbEntity
  8
FORMAT
 62
     0
100
AcDbLine
 10
0.0
 20
0.0
 30
0.0
 11
0.0
 21
-2.5
 31
0.0
  0
LINE
  5
CA
330
C4
100
AcDbEntity
  8
FORMAT
 62
     0
100
AcDbLine
 10
0.0
 20
0.0
 30
0.0
 11
2.5
 21
0.0
 31
0.0
  0
LINE
  5
CB
330
C4
100
AcDbEntity
  8
FORMAT
 62
     0
100
AcDbLine
 10
0.0
 20
5.0
 30
0.0
 11
0.0
 21
15.5
 31
0.0
  0
LINE
  5
CC
330
C4
100
AcDbEntity
  8
FORMAT
 62
     0
100
AcDbLine
 10
-5.0
 20
0.0
 30
0.0
 11
-15.5
 21
0.0
 31
0.0
  0
LINE
  5
CD
330
C4
100
AcDbEntity
  8
FORMAT
 62
     0
100
AcDbLine
 10
0.0
 20
-5.0
 30
0.0
 11
0.0
 21
-15.5
 31
0.0
  0
LINE
  5
CE
330
C4
100
AcDbEntity
  8
FORMAT
 62
     0
100
AcDbLine
 10
5.0
 20
0.0
 30
0.0
 11
15.5
 21
0.0
 31
0.0
  0
ENDBLK
  5
C6
330
C4
100
AcDbEntity
  8
0
100
AcDbBlockEnd
  0
BLOCK
  5
F0
330
EF
100
AcDbEntity
  8
0
100
AcDbBlockBegin
  2
SW_CENTERMARKSYMBOL_1
 70
     0
 10
0.0
 20
0.0
 30
0.0
  3
SW_CENTERMARKSYMBOL_1
  1

  0
LINE
  5
F2
330
EF
100
AcDbEntity
  8
FORMAT
 62
     0
100
AcDbLine
 10
0.0
 20
0.0
 30
0.0
 11
0.0
 21
2.5
 31
0.0
  0
LINE
  5
F3
330
EF
100
AcDbEntity
  8
FORMAT
 62
     0
100
AcDbLine
 10
0.0
 20
0.0
 30
0.0
 11
-2.5
 21
0.0
 31
0.0
  0
LINE
  5
F4
330
EF
100
AcDbEntity
  8
FORMAT
 62
     0
100
AcDbLine
 10
0.0
 20
0.0
 30
0.0
 11
0.0
 21
-2.5
 31
0.0
  0
LINE
  5
F5
330
EF
100
AcDbEntity
  8
FORMAT
 62
     0
100
AcDbLine
 10
0.0
 20
0.0
 30
0.0
 11
2.5
 21
0.0
 31
0.0
  0
LINE
  5
F6
330
EF
100
AcDbEntity
  8
FORMAT
 62
     0
100
AcDbLine
 10
0.0
 20
5.0
 30
0.0
 11
0.0
 21
18.5
 31
0.0
  0
LINE
  5
F7
330
EF
100
AcDbEntity
  8
FORMAT
 62
     0
100
AcDbLine
 10
-5.0
 20
0.0
 30
0.0
 11
-18.5
 21
0.0
 31
0.0
  0
LINE
  5
F8
330
EF
100
AcDbEntity
  8
FORMAT
 62
     0
100
AcDbLine
 10
0.0
 20
-5.0
 30
0.0
 11
0.0
 21
-18.5
 31
0.0
  0
LINE
  5
F9
330
EF
100
AcDbEntity
  8
FORMAT
 62
     0
100
AcDbLine
 10
5.0
 20
0.0
 30
0.0
 11
18.5
 21
0.0
 31
0.0
  0
ENDBLK
  5
F1
330
EF
100
AcDbEntity
  8
0
100
AcDbBlockEnd
  0
BLOCK
  5
FC
330
FB
100
AcDbEntity
  8
0
100
AcDbBlockBegin
  2
SW_CENTERMARKSYMBOL_2
 70
     0
 10
0.0
 20
0.0
 30
0.0
  3
SW_CENTERMARKSYMBOL_2
  1

  0
LINE
  5
FE
330
FB
100
AcDbEntity
  8
FORMAT
 62
     0
100
AcDbLine
 10
0.0
 20
0.0
 30
0.0
 11
0.0
 21
2.5
 31
0.0
  0
LINE
  5
FF
330
FB
100
AcDbEntity
  8
FORMAT
 62
     0
100
AcDbLine
 10
0.0
 20
0.0
 30
0.0
 11
-2.5
 21
0.0
 31
0.0
  0
LINE
  5
100
330
FB
100
AcDbEntity
  8
FORMAT
 62
     0
100
AcDbLine
 10
0.0
 20
0.0
 30
0.0
 11
0.0
 21
-2.5
 31
0.0
  0
LINE
  5
101
330
FB
100
AcDbEntity
  8
FORMAT
 62
     0
100
AcDbLine
 10
0.0
 20
0.0
 30
0.0
 11
2.5
 21
0.0
 31
0.0
  0
LINE
  5
102
330
FB
100
AcDbEntity
  8
FORMAT
 62
     0
100
AcDbLine
 10
0.0
 20
5.0
 30
0.0
 11
0.0
 21
9.5
 31
0.0
  0
LINE
  5
103
330
FB
100
AcDbEntity
  8
FORMAT
 62
     0
100
AcDbLine
 10
-5.0
 20
0.0
 30
0.0
 11
-9.5
 21
0.0
 31
0.0
  0
LINE
  5
104
330
FB
100
AcDbEntity
  8
FORMAT
 62
     0
100
AcDbLine
 10
0.0
 20
-5.0
 30
0.0
 11
0.0
 21
-9.5
 31
0.0
  0
LINE
  5
105
330
FB
100
AcDbEntity
  8
FORMAT
 62
     0
100
AcDbLine
 10
5.0
 20
0.0
 30
0.0
 11
9.5
 21
0.0
 31
0.0
  0
ENDBLK
  5
FD
330
FB
100
AcDbEntity
  8
0
100
AcDbBlockEnd
  0
BLOCK
  5
108
330
107
100
AcDbEntity
  8
0
100
AcDbBlockBegin
  2
SW_CENTERMARKSYMBOL_3
 70
     0
 10
0.0
 20
0.0
 30
0.0
  3
SW_CENTERMARKSYMBOL_3
  1

  0
LINE
  5
10A
330
107
100
AcDbEntity
  8
FORMAT
 62
     0
100
AcDbLine
 10
0.0
 20
0.0
 30
0.0
 11
0.0
 21
2.5
 31
0.0
  0
LINE
  5
10B
330
107
100
AcDbEntity
  8
FORMAT
 62
     0
100
AcDbLine
 10
0.0
 20
0.0
 30
0.0
 11
-2.5
 21
0.0
 31
0.0
  0
LINE
  5
10C
330
107
100
AcDbEntity
  8
FORMAT
 62
     0
100
AcDbLine
 10
0.0
 20
0.0
 30
0.0
 11
0.0
 21
-2.5
 31
0.0
  0
LINE
  5
10D
330
107
100
AcDbEntity
  8
FORMAT
 62
     0
100
AcDbLine
 10
0.0
 20
0.0
 30
0.0
 11
2.5
 21
0.0
 31
0.0
  0
LINE
  5
10E
330
107
100
AcDbEntity
  8
FORMAT
 62
     0
100
AcDbLine
 10
0.0
 20
5.0
 30
0.0
 11
0.0
 21
9.5
 31
0.0
  0
LINE
  5
10F
330
107
100
AcDbEntity
  8
FORMAT
 62
     0
100
AcDbLine
 10
-5.0
 20
0.0
 30
0.0
 11
-9.5
 21
0.0
 31
0.0
  0
LINE
  5
110
330
107
100
AcDbEntity
  8
FORMAT
 62
     0
100
AcDbLine
 10
0.0
 20
-5.0
 30
0.0
 11
0.0
 21
-9.5
 31
0.0
  0
LINE
  5
111
330
107
100
AcDbEntity
  8
FORMAT
 62
     0
100
AcDbLine
 10
5.0
 20
0.0
 30
0.0
 11
9.5
 21
0.0
 31
0.0
  0
ENDBLK
  5
109
330
107
100
AcDbEntity
  8
0
100
AcDbBlockEnd
  0
ENDSEC
  0
SECTION
  2
ENTITIES
  0
LINE
  5
83
330
1F
100
AcDbEntity
  8
0
  6
Continuous
 62
     7
370
    25
100
AcDbLine
 10
171.1807140607
 20
23.2384285714
 30
0.0
 11
211.1807140607
 21
23.2384285714
 31
0.0
  0
LINE
  5
84
330
1F
100
AcDbEntity
  8
0
  6
Continuous
 62
     7
370
    25
100
AcDbLine
 10
71.1807140607
 20
23.2384285714
 30
0.0
 11
111.1807140607
 21
23.2384285714
 31
0.0
  0
LINE
  5
85
330
1F
100
AcDbEntity
  8
0
  6
Continuous
 62
     7
370
    25
100
AcDbLine
 10
74.2038177965
 20
127.2384285714
 30
0.0
 11
71.1807140607
 21
127.2384285714
 31
0.0
  0
LINE
  5
86
330
1F
100
AcDbEntity
  8
0
  6
Continuous
 62
     7
370
    25
100
AcDbLine
 10
125.2378478505
 20
127.2384285714
 30
0.0
 11
88.1787431915
 21
127.2384285714
 31
0.0
  0
LINE
  5
87
330
1F
100
AcDbEntity
  8
0
  6
Continuous
 62
     7
370
    25
100
AcDbLine
 10
194.2038177965
 20
127.2384285714
 30
0.0
 11
157.1313018392
 21
127.2384285714
 31
0.0
  0
LINE
  5
88
330
1F
100
AcDbEntity
  8
0
  6
Continuous
 62
     7
370
    25
100
AcDbLine
 10
211.1807140607
 20
127.2384285714
 30
0.0
 11
208.1787431915
 21
127.2384285714
 31
0.0
  0
LINE
  5
89
330
1F
100
AcDbEntity
  8
0
  6
Continuous
 62
     7
370
    25
100
AcDbLine
 10
125.1807140607
 20
175.2384285714
 30
0.0
 11
125.1807140607
 21
127.2208797719
 31
0.0
  0
LINE
  5
8A
330
1F
100
AcDbEntity
  8
0
  6
Continuous
 62
     7
370
    25
100
AcDbLine
 10
157.1807140607
 20
127.2232550541
 30
0.0
 11
157.1807140607
 21
175.2384285714
 31
0.0
  0
LINE
  5
8B
330
1F
100
AcDbEntity
  8
0
  6
Continuous
 62
     7
370
    25
100
AcDbLine
 10
88.1807140607
 20
127.2381665394
 30
0.0
 11
88.1807140607
 21
142.2384285714
 31
0.0
  0
LINE
  5
8C
330
1F
100
AcDbEntity
  8
0
  6
Continuous
 62
     7
370
    25
100
AcDbLine
 10
74.1807140607
 20
142.2384285714
 30
0.0
 11
74.1807140607
 21
127.2353276975
 31
0.0
  0
LINE
  5
8D
330
1F
100
AcDbEntity
  8
0
  6
Continuous
 62
     7
370
    25
100
AcDbLine
 10
208.1807140607
 20
127.2381665394
 30
0.0
 11
208.1807140607
 21
142.2384285714
 31
0.0
  0
LINE
  5
8E
330
1F
100
AcDbEntity
  8
0
  6
Continuous
 62
     7
370
    25
100
AcDbLine
 10
194.1807140607
 20
142.2384285714
 30
0.0
 11
194.1807140607
 21
127.2353276975
 31
0.0
  0
LINE
  5
8F
330
1F
100
AcDbEntity
  8
0
  6
Continuous
 62
     7
370
    25
100
AcDbLine
 10
211.1807140607
 20
77.2384285714
 30
0.0
 11
71.1807140607
 21
77.2384285714
 31
0.0
  0
LINE
  5
90
330
1F
100
AcDbEntity
  8
0
  6
Continuous
 62
     7
370
    25
100
AcDbLine
 10
71.1807140607
 20
84.2384285714
 30
0.0
 11
71.1807140607
 21
77.2384285714
 31
0.0
  0
LINE
  5
91
330
1F
100
AcDbEntity
  8
0
  6
Continuous
 62
     7
370
    25
100
AcDbLine
 10
211.1807140607
 20
84.2384285714
 30
0.0
 11
71.1807140607
 21
84.2384285714
 31
0.0
  0
LINE
  5
92
330
1F
100
AcDbEntity
  8
0
  6
Continuous
 62
     7
370
    25
100
AcDbLine
 10
211.1807140607
 20
84.2384285714
 30
0.0
 11
211.1807140607
 21
77.2384285714
 31
0.0
  0
LINE
  5
93
330
1F
100
AcDbEntity
  8
0
  6
Continuous
 62
     7
370
    25
100
AcDbLine
 10
71.1807140607
 20
73.2384285714
 30
0.0
 11
71.1807140607
 21
66.2384285714
 31
0.0
  0
LINE
  5
94
330
1F
100
AcDbEntity
  8
0
  6
Continuous
 62
     7
370
    25
100
AcDbLine
 10
211.1807140607
 20
73.2384285714
 30
0.0
 11
71.1807140607
 21
73.2384285714
 31
0.0
  0
LINE
  5
95
330
1F
100
AcDbEntity
  8
0
  6
Continuous
 62
     7
370
    25
100
AcDbLine
 10
211.1807140607
 20
73.2384285714
 30
0.0
 11
211.1807140607
 21
66.2384285714
 31
0.0
  0
LINE
  5
96
330
1F
100
AcDbEntity
  8
0
  6
Continuous
 62
     7
370
    25
100
AcDbLine
 10
211.1807140607
 20
66.2384285714
 30
0.0
 11
71.1807140607
 21
66.2384285714
 31
0.0
  0
SPLINE
  5
97
330
1F
100
AcDbEntity
  8
0
  6
Continuous
 62
     7
370
    25
100
AcDbSpline
210
0.0
220
0.0
230
1.0
 70
     8
 71
     3
 72
    27
 73
    23
 74
     0
 42
0.00000001
 43
0.00000001
 40
0.0
 40
0.0
 40
0.0
 40
0.0
 40
0.0354895029045435
 40
0.087918253942631
 40
0.1418590558877755
 40
0.1944593714768299
 40
0.2485615818046596
 40
0.3015698132367647
 40
0.3561127439804795
 40
0.4091354514872941
 40
0.4637193176111186
 40
0.5163306863521621
 40
0.5704804411615504
 40
0.622898960659706
 40
0.6768201971695433
 40
0.7295621933400581
 40
0.7838134912551251
 40
0.8368924366278968
 40
0.8915191161820714
 40
0.9444251561254623
 40
0.9988896032637349
 40
1.0
 40
1.0
 40
1.0
 40
1.0
 10
194.2038177964936
 20
127.235325597712
 30
0.0
 10
194.2030812552977
 20
127.2354195099842
 30
0.0
 10
194.2012566195434
 20
127.2356521591428
 30
0.0
 10
194.4232187040401
 20
127.2060143478463
 30
0.0
 10
194.8304530345044
 20
127.1541715319449
 30
0.0
 10
195.4276188027278
 20
127.0838587937459
 30
0.0
 10
196.17974057346
 20
127.0050442691728
 30
0.0
 10
197.0830204049882
 20
126.9248332405637
 30
0.0
 10
198.0969197238447
 20
126.8536473083463
 30
0.0
 10
199.2093747856524
 20
126.7986163071072
 30
0.0
 10
200.365792040941
 20
126.767077077677
 30
0.0
 10
201.5532749478168
 20
126.7619685451184
 30
0.0
 10
202.714768893749
 20
126.7836864497181
 30
0.0
 10
203.8413692548336
 20
126.8299546576032
 30
0.0
 10
204.8838668850622
 20
126.89481781459
 30
0.0
 10
205.83309785555
 20
126.9722198214391
 30
0.0
 10
206.6475771236373
 20
127.052581764502
 30
0.0
 10
207.3143735705233
 20
127.1278272524395
 30
0.0
 10
207.808604761598
 20
127.1891919761079
 30
0.0
 10
208.094593902991
 20
127.226781123698
 30
0.0
 10
208.2121923049626
 20
127.2426393141912
 30
0.0
 10
208.1793984200297
 20
127.2382525721869
 30
0.0
 10
208.178743191508
 20
127.2381649241853
 30
0.0
  0
SPLINE
  5
98
330
1F
100
AcDbEntity
  8
0
  6
Continuous
 62
     7
370
    25
100
AcDbSpline
210
0.0
220
0.0
230
1.0
 70
     8
 71
     3
 72
    17
 73
    13
 74
     0
 42
0.00000001
 43
0.00000001
 40
0.0
 40
0.0
 40
0.0
 40
0.0
 40
0.1023567730059589
 40
0.2077777142923768
 40
0.3101088466723962
 40
0.415245279726875
 40
0.5206647558670453
 40
0.6290070502777901
 40
0.7365671138648745
 40
0.8474311339453411
 40
0.951724861278799
 40
1.0
 40
1.0
 40
1.0
 40
1.0
 10
141.1807140607425
 20
124.7156960788404
 30
0.0
 10
140.3179207518509
 20
124.728884667857
 30
0.0
 10
138.5665054193473
 20
124.7556566615426
 30
0.0
 10
136.0283573397438
 20
124.9644343275767
 30
0.0
 10
133.6169039434948
 20
125.2727825991858
 30
0.0
 10
131.41398217581
 20
125.6566018026334
 30
0.0
 10
129.4383836350902
 20
126.0796019169032
 30
0.0
 10
127.7741949042213
 20
126.493116633766
 30
0.0
 10
126.4546451354653
 20
126.8571841270937
 30
0.0
 10
125.5985908358888
 20
127.1101475094924
 30
0.0
 10
125.1841535110999
 20
127.2373552003808
 30
0.0
 10
125.224941805906
 20
127.2248389166187
 30
0.0
 10
125.2378478505066
 20
127.2208785716904
 30
0.0
  0
SPLINE
  5
99
330
1F
100
AcDbEntity
  8
0
  6
Continuous
 62
     7
370
    25
100
AcDbSpline
210
0.0
220
0.0
230
1.0
 70
     8
 71
     3
 72
    17
 73
    13
 74
     0
 42
0.00000001
 43
0.00000001
 40
0.0
 40
0.0
 40
0.0
 40
0.0
 40
0.0624599351515427
 40
0.1675774544798304
 40
0.2685827490654145
 40
0.3723399691205786
 40
0.4767219062056907
 40
0.5839469443044193
 40
0.6914957803892566
 40
0.8022729971754652
 40
0.8998277626512698
 40
1.0
 40
1.0
 40
1.0
 40
1.0
 10
157.1313018391597
 20
127.223250567071
 30
0.0
 10
157.1355453751544
 20
127.2245415351738
 30
0.0
 10
157.1469306088768
 20
127.2280051498567
 30
0.0
 10
156.6892601107163
 20
127.0879431988355
 30
0.0
 10
155.8230674456104
 20
126.8336654532827
 30
0.0
 10
154.5651688992706
 20
126.4878010902261
 30
0.0
 10
152.9341010383486
 20
126.0824836472489
 30
0.0
 10
150.9614150882485
 20
125.6587892170791
 30
0.0
 10
148.6681836919881
 20
125.2593615157138
 30
0.0
 10
146.2212056333757
 20
124.9525796553162
 30
0.0
 10
143.6918096513252
 20
124.7531486359093
 30
0.0
 10
142.0251004491029
 20
124.7282899559978
 30
0.0
 10
141.1807140607425
 20
124.7156960788404
 30
0.0
  0
SPLINE
  5
9A
330
1F
100
AcDbEntity
  8
0
  6
Continuous
 62
     7
370
    25
100
AcDbSpline
210
0.0
220
0.0
230
1.0
 70
     8
 71
     3
 72
    27
 73
    23
 74
     0
 42
0.00000001
 43
0.00000001
 40
0.0
 40
0.0
 40
0.0
 40
0.0
 40
0.0354895029045436
 40
0.087918253942631
 40
0.1418590558877754
 40
0.1944593714768302
 40
0.2485615818046595
 40
0.3015698132367647
 40
0.3561127439804795
 40
0.4091354514872941
 40
0.4637193176111186
 40
0.5163306863521621
 40
0.5704804411615504
 40
0.622898960659706
 40
0.6768201971695434
 40
0.7295621933400581
 40
0.7838134912551249
 40
0.836892436627897
 40
0.8915191161820709
 40
0.9444251561254621
 40
0.9988896032637349
 40
1.0
 40
1.0
 40
1.0
 40
1.0
 10
74.2038177964936
 20
127.235325597712
 30
0.0
 10
74.20308125529768
 20
127.2354195099842
 30
0.0
 10
74.2012566195434
 20
127.2356521591428
 30
0.0
 10
74.42321870404007
 20
127.2060143478463
 30
0.0
 10
74.83045303450437
 20
127.1541715319449
 30
0.0
 10
75.42761880272775
 20
127.0838587937459
 30
0.0
 10
76.17974057346
 20
127.0050442691728
 30
0.0
 10
77.08302040498819
 20
126.9248332405637
 30
0.0
 10
78.09691972384472
 20
126.8536473083463
 30
0.0
 10
79.20937478565237
 20
126.7986163071072
 30
0.0
 10
80.36579204094093
 20
126.767077077677
 30
0.0
 10
81.55327494781677
 20
126.7619685451184
 30
0.0
 10
82.714768893749
 20
126.7836864497181
 30
0.0
 10
83.8413692548336
 20
126.8299546576031
 30
0.0
 10
84.88386688506213
 20
126.89481781459
 30
0.0
 10
85.83309785555
 20
126.9722198214391
 30
0.0
 10
86.64757712363732
 20
127.052581764502
 30
0.0
 10
87.31437357052336
 20
127.1278272524395
 30
0.0
 10
87.80860476159803
 20
127.1891919761079
 30
0.0
 10
88.09459390299098
 20
127.2267811236982
 30
0.0
 10
88.21219230496258
 20
127.2426393141907
 30
0.0
 10
88.17939842002976
 20
127.2382525721869
 30
0.0
 10
88.17874319150799
 20
127.2381649241853
 30
0.0
  0
LINE
  5
9B
330
1F
100
AcDbEntity
  8
0
  6
Continuous
 62
     7
370
    25
100
AcDbLine
 10
111.1807140607
 20
65.2384285714
 30
0.0
 11
171.1807140607
 21
65.2384285714
 31
0.0
  0
LINE
  5
9C
330
1F
100
AcDbEntity
  8
0
  6
Continuous
 62
     7
370
    25
100
AcDbLine
 10
111.1807140607
 20
23.2384285714
 30
0.0
 11
111.1807140607
 21
65.2384285714
 31
0.0
  0
LINE
  5
9D
330
1F
100
AcDbEntity
  8
0
  6
Continuous
 62
     7
370
    25
100
AcDbLine
 10
171.1807140607
 20
65.2384285714
 30
0.0
 11
171.1807140607
 21
23.2384285714
 31
0.0
  0
LINE
  5
9E
330
1F
100
AcDbEntity
  8
0
  6
Continuous
 62
     7
370
    25
100
AcDbLine
 10
71.1807140607
 20
66.2384285714
 30
0.0
 11
71.1807140607
 21
23.2384285714
 31
0.0
  0
LINE
  5
9F
330
1F
100
AcDbEntity
  8
0
  6
Continuous
 62
     7
370
    25
100
AcDbLine
 10
71.1807140607
 20
127.2384285714
 30
0.0
 11
71.1807140607
 21
84.2384285714
 31
0.0
  0
LINE
  5
A0
330
1F
100
AcDbEntity
  8
0
  6
Continuous
 62
     7
370
    25
100
AcDbLine
 10
211.1807140607
 20
66.2384285714
 30
0.0
 11
211.1807140607
 21
23.2384285714
 31
0.0
  0
LINE
  5
A1
330
1F
100
AcDbEntity
  8
0
  6
Continuous
 62
     7
370
    25
100
AcDbLine
 10
211.1807140607
 20
127.2384285714
 30
0.0
 11
211.1807140607
 21
84.2384285714
 31
0.0
  0
LINE
  5
A2
330
1F
100
AcDbEntity
  8
0
  6
Continuous
 62
     7
370
    25
100
AcDbLine
 10
71.1807140607
 20
77.2384285714
 30
0.0
 11
71.1807140607
 21
73.2384285714
 31
0.0
  0
LINE
  5
A3
330
1F
100
AcDbEntity
  8
0
  6
Continuous
 62
     7
370
    25
100
AcDbLine
 10
211.1807140607
 20
77.2384285714
 30
0.0
 11
211.1807140607
 21
73.2384285714
 31
0.0
  0
LINE
  5
A4
330
1F
100
AcDbEntity
  8
0
  6
Continuous
 62
     7
370
    25
100
AcDbLine
 10
141.1807140607
 20
175.2384285714
 30
0.0
 11
157.1807140607
 21
175.2384285714
 31
0.0
  0
LINE
  5
A5
330
1F
100
AcDbEntity
  8
0
  6
Continuous
 62
     7
370
    25
100
AcDbLine
 10
125.1807140607
 20
175.2384285714
 30
0.0
 11
141.1807140607
 21
175.2384285714
 31
0.0
  0
LINE
  5
A6
330
1F
100
AcDbEntity
  8
0
  6
Continuous
 62
     7
370
    25
100
AcDbLine
 10
88.1807140607
 20
142.2384285714
 30
0.0
 11
74.1807140607
 21
142.2384285714
 31
0.0
  0
LINE
  5
A7
330
1F
100
AcDbEntity
  8
0
  6
Continuous
 62
     7
370
    25
100
AcDbLine
 10
194.1807140607
 20
142.2384285714
 30
0.0
 11
208.1807140607
 21
142.2384285714
 31
0.0
  0
LINE
  5
A8
330
1F
100
AcDbEntity
  8
0
  6
Continuous
 62
     7
370
    25
100
AcDbLine
 10
345.9039111705
 20
126.7681583147
 30
0.0
 11
345.9039111705
 21
142.2384285714
 31
0.0
  0
LINE
  5
A9
330
1F
100
AcDbEntity
  8
0
  6
Continuous
 62
     7
370
    25
100
AcDbLine
 10
331.9039111705
 20
142.2384285714
 30
0.0
 11
331.9039111705
 21
126.7651206834
 31
0.0
  0
LINE
  5
AA
330
1F
100
AcDbEntity
  8
0
  6
Continuous
 62
     7
370
    25
100
AcDbLine
 10
322.9039111705
 20
175.2384285714
 30
0.0
 11
322.9039111705
 21
124.7224142175
 31
0.0
  0
LINE
  5
AB
330
1F
100
AcDbEntity
  8
0
  6
Continuous
 62
     7
370
    25
100
AcDbLine
 10
354.9039111705
 20
124.7156960788
 30
0.0
 11
354.9039111705
 21
175.2384285714
 31
0.0
  0
LINE
  5
AC
330
1F
100
AcDbEntity
  8
0
  6
Continuous
 62
     7
370
    25
100
AcDbLine
 10
390.1191432797
 20
84.2384285714
 30
0.0
 11
405.1191432797
 21
84.2384285714
 31
0.0
  0
LINE
  5
AD
330
1F
100
AcDbEntity
  8
0
  6
Continuous
 62
     7
370
    25
100
AcDbLine
 10
405.1191432797
 20
84.2384285714
 30
0.0
 11
405.1191432797
 21
77.2384285714
 31
0.0
  0
LINE
  5
AE
330
1F
100
AcDbEntity
  8
0
  6
Continuous
 62
     7
370
    25
100
AcDbLine
 10
405.1191432797
 20
77.2384285714
 30
0.0
 11
383.8594447565
 21
77.2384285714
 31
0.0
  0
ARC
  5
AF
330
1F
100
AcDbEntity
  8
0
  6
Continuous
 62
     7
370
    25
100
AcDbCircle
 10
338.9039111705
 20
75.2384285714
 30
0.0
 40
45.00000000000007
100
AcDbArc
 50
2.5473181826
 51
357.4526818174
  0
LINE
  5
B0
330
1F
100
AcDbEntity
  8
0
  6
Continuous
 62
     7
370
    25
100
AcDbLine
 10
383.8594447565
 20
73.2384285714
 30
0.0
 11
405.1191432797
 21
73.2384285714
 31
0.0
  0
LINE
  5
B1
330
1F
100
AcDbEntity
  8
0
  6
Continuous
 62
     7
370
    25
100
AcDbLine
 10
405.1191432797
 20
73.2384285714
 30
0.0
 11
405.1191432797
 21
66.2384285714
 31
0.0
  0
LINE
  5
B2
330
1F
100
AcDbEntity
  8
0
  6
Continuous
 62
     7
370
    25
100
AcDbLine
 10
405.1191432797
 20
66.2384285714
 30
0.0
 11
390.1191432797
 21
66.2384285714
 31
0.0
  0
ARC
  5
B3
330
1F
100
AcDbEntity
  8
0
  6
Continuous
 62
     7
370
    25
100
AcDbCircle
 10
338.9039111705
 20
75.2384285714
 30
0.0
 40
52.00000000000002
100
AcDbArc
 50
9.9667663002
 51
350.0332336998
  0
LINE
  5
B4
330
1F
100
AcDbEntity
  8
0
  6
Continuous
 62
     7
370
    25
100
AcDbLine
 10
345.9039111705
 20
142.2384285714
 30
0.0
 11
331.9039111705
 21
142.2384285714
 31
0.0
  0
LINE
  5
B5
330
1F
100
AcDbEntity
  8
0
  6
Continuous
 62
     7
370
    25
100
AcDbLine
 10
322.9039111705
 20
175.2384285714
 30
0.0
 11
354.9039111705
 21
175.2384285714
 31
0.0
  0
LINE
  5
B6
330
1F
100
AcDbEntity
  8
0
  6
Continuous
 62
     7
370
    25
100
AcDbLine
 10
71.1807140607
 20
231.9300300475
 30
0.0
 11
211.1807140607
 21
231.9300300475
 31
0.0
  0
LINE
  5
B7
330
1F
100
AcDbEntity
  8
0
  6
Continuous
 62
     7
370
    25
100
AcDbLine
 10
211.1807140607
 20
335.1452621567
 30
0.0
 11
71.1807140607
 21
335.1452621567
 31
0.0
  0
LINE
  5
B8
330
1F
100
AcDbEntity
  8
0
  6
Continuous
 62
     7
370
    25
100
AcDbLine
 10
211.1807140607
 20
335.1452621567
 30
0.0
 11
211.1807140607
 21
231.9300300475
 31
0.0
  0
LINE
  5
B9
330
1F
100
AcDbEntity
  8
0
  6
Continuous
 62
     7
370
    25
100
AcDbLine
 10
71.1807140607
 20
335.1452621567
 30
0.0
 11
71.1807140607
 21
231.9300300475
 31
0.0
  0
LINE
  5
BA
330
1F
100
AcDbEntity
  8
0
  6
Continuous
 62
     7
370
    25
100
AcDbLine
 10
111.1807140607
 20
334.9594333361
 30
0.0
 11
171.1807140607
 21
334.9594333361
 31
0.0
  0
LINE
  5
BB
330
1F
100
AcDbEntity
  8
0
  6
Continuous
 62
     7
370
    25
100
AcDbLine
 10
111.1807140607
 20
232.9006267588
 30
0.0
 11
111.1807140607
 21
334.9594333361
 31
0.0
  0
LINE
  5
BC
330
1F
100
AcDbEntity
  8
0
  6
Continuous
 62
     7
370
    25
100
AcDbLine
 10
171.1807140607
 20
232.9006267588
 30
0.0
 11
111.1807140607
 21
232.9006267588
 31
0.0
  0
LINE
  5
BD
330
1F
100
AcDbEntity
  8
0
  6
Continuous
 62
     7
370
    25
100
AcDbLine
 10
171.1807140607
 20
334.9594333361
 30
0.0
 11
171.1807140607
 21
232.9006267588
 31
0.0
  0
SPLINE
  5
BE
330
1F
100
AcDbEntity
  8
0
  6
Continuous
 62
     7
370
    25
100
AcDbSpline
210
0.0
220
0.0
230
1.0
 70
    11
 71
     3
 72
   100
 73
    96
 74
     0
 42
0.00000001
 43
0.00000001
 40
0.0
 40
0.0
 40
0.0
 40
0.0
 40
0.03125
 40
0.03125
 40
0.046875
 40
0.046875
 40
0.0625
 40
0.0625
 40
0.0937500000000001
 40
0.0937500000000001
 40
0.1093750000000001
 40
0.1093750000000001
 40
0.1250000000000001
 40
0.1250000000000001
 40
0.1562500000000001
 40
0.1562500000000001
 40
0.1718750000000001
 40
0.1718750000000001
 40
0.1875000000000001
 40
0.1875000000000001
 40
0.2031250000000001
 40
0.2031250000000001
 40
0.2187500000000001
 40
0.2187500000000001
 40
0.2500000000000001
 40
0.2500000000000001
 40
0.2656250000000001
 40
0.2656250000000001
 40
0.2812500000000001
 40
0.2812500000000001
 40
0.3125000000000001
 40
0.3125000000000001
 40
0.3281250000000001
 40
0.3281250000000001
 40
0.3437500000000001
 40
0.3437500000000001
 40
0.3593750000000001
 40
0.3593750000000001
 40
0.3750000000000001
 40
0.3750000000000001
 40
0.4062500000000001
 40
0.4062500000000001
 40
0.4218750000000001
 40
0.4218750000000001
 40
0.4375000000000001
 40
0.4375000000000001
 40
0.46875
 40
0.46875
 40
0.484375
 40
0.484375
 40
0.5
 40
0.5
 40
0.515625
 40
0.515625
 40
0.53125
 40
0.53125
 40
0.5625
 40
0.5625
 40
0.578125
 40
0.578125
 40
0.59375
 40
0.59375
 40
0.625
 40
0.625
 40
0.640625
 40
0.640625
 40
0.65625
 40
0.65625
 40
0.6875
 40
0.6875
 40
0.71875
 40
0.71875
 40
0.734375
 40
0.734375
 40
0.7499999999999999
 40
0.7499999999999999
 40
0.7812499999999999
 40
0.7812499999999999
 40
0.7968749999999999
 40
0.7968749999999999
 40
0.8124999999999999
 40
0.8124999999999999
 40
0.8437499999999999
 40
0.8437499999999999
 40
0.8749999999999999
 40
0.8749999999999999
 40
0.8906249999999999
 40
0.8906249999999999
 40
0.9062499999999999
 40
0.9062499999999999
 40
0.9374999999999999
 40
0.9374999999999999
 40
0.9687499999999999
 40
0.9687499999999999
 40
1.0
 40
1.0
 40
1.0
 40
1.0
 10
141.1807140607425
 20
270.9300300474527
 30
0.0
 10
142.0445329161645
 20
270.9300300474527
 30
0.0
 10
142.8929403152649
 20
271.0152629864986
 30
0.0
 10
144.1436186427008
 20
271.2650417653991
 30
0.0
 10
144.5568301468334
 20
271.3687782502271
 30
0.0
 10
145.3757835125998
 20
271.6180603092606
 30
0.0
 10
145.7814865912105
 20
271.7639282802726
 30
0.0
 10
146.9603432007762
 20
272.2543952745748
 30
0.0
 10
147.7050961829986
 20
272.6538853294696
 30
0.0
 10
148.7622112391371
 20
273.3611771778872
 30
0.0
 10
149.1062442324227
 20
273.6166074733875
 30
0.0
 10
149.7630968369114
 20
274.1564217282714
 30
0.0
 10
150.0760682650042
 20
274.4405453011085
 30
0.0
 10
150.9700727253729
 20
275.3347379862875
 30
0.0
 10
151.5066627482451
 20
275.9861903098238
 30
0.0
 10
152.2197330982196
 20
277.0508941853887
 30
0.0
 10
152.43930140095
 20
277.4166829413153
 30
0.0
 10
152.8394830168301
 20
278.1635245327863
 30
0.0
 10
153.0207405019266
 20
278.5455357259887
 30
0.0
 10
153.3457951848937
 20
279.3267913540287
 30
0.0
 10
153.4895939673429
 20
279.7260348243994
 30
0.0
 10
153.7387963485749
 20
280.5423066758366
 30
0.0
 10
153.8445561015875
 20
280.9617618236635
 30
0.0
 10
154.0964643371089
 20
282.2219783111569
 30
0.0
 10
154.1801604447317
 20
283.0685979122077
 30
0.0
 10
154.1809868022303
 20
284.3481526973894
 30
0.0
 10
154.1602977553065
 20
284.7765912330188
 30
0.0
 10
154.0755722773022
 20
285.6355769685083
 30
0.0
 10
154.012260782892
 20
286.059096429231
 30
0.0
 10
153.7618583907471
 20
287.3124651333771
 30
0.0
 10
153.5148800409645
 20
288.1252781248367
 30
0.0
 10
153.022817184305
 20
289.3103211943635
 30
0.0
 10
152.8385003432322
 20
289.6985970427594
 30
0.0
 10
152.4371633917797
 20
290.4471378910701
 30
0.0
 10
152.2192991612598
 20
290.8095557577799
 30
0.0
 10
151.7496815433893
 20
291.5112675039086
 30
0.0
 10
151.4979281939172
 20
291.8505609361919
 30
0.0
 10
150.9599797314679
 20
292.5059078433767
 30
0.0
 10
150.6721441725716
 20
292.8234560199446
 30
0.0
 10
149.7713467911357
 20
293.7240135922227
 30
0.0
 10
149.1200650326253
 20
294.2586787603229
 30
0.0
 10
148.0669607951271
 20
294.9644387509279
 30
0.0
 10
147.7031352033469
 20
295.1835302727309
 30
0.0
 10
146.9486860285159
 20
295.5882350662714
 30
0.0
 10
146.5631948250091
 20
295.7710117846095
 30
0.0
 10
145.388104986611
 20
296.2595739281663
 30
0.0
 10
144.5776207763062
 20
296.5074953359767
 30
0.0
 10
143.319698065291
 20
296.7599813142289
 30
0.0
 10
142.8910751162515
 20
296.8241523525026
 30
0.0
 10
142.0380026844403
 20
296.9088120077702
 30
0.0
 10
141.6119387892897
 20
296.9298447155971
 30
0.0
 10
140.7607369596017
 20
296.9302129464404
 30
0.0
 10
140.3355990527158
 20
296.9095471415047
 30
0.0
 10
139.4862553298775
 20
296.8261881180168
 30
0.0
 10
139.0606959574112
 20
296.7632206430457
 30
0.0
 10
137.7943776908181
 20
296.51071987253
 30
0.0
 10
136.9814152277812
 20
296.2623207194331
 30
0.0
 10
135.8062330484622
 20
295.7746418952643
 30
0.0
 10
135.4219371826413
 20
295.5927533761468
 30
0.0
 10
134.6684215157221
 20
295.1893671674384
 30
0.0
 10
134.3018465723831
 20
294.9690735872707
 30
0.0
 10
133.2461633106906
 20
294.2625082197242
 30
0.0
 10
132.5944828605209
 20
293.7277823972547
 30
0.0
 10
131.6943182349416
 20
292.8288009496142
 30
0.0
 10
131.4061424594209
 20
292.5112801781106
 30
0.0
 10
130.8672786724919
 20
291.8555050670752
 30
0.0
 10
130.6153601132008
 20
291.5162824622801
 30
0.0
 10
129.9110082964356
 20
290.4649708229445
 30
0.0
 10
129.509430701302
 20
289.7195917838116
 30
0.0
 10
128.8491184970734
 20
288.1335560922825
 30
0.0
 10
128.6017891535615
 20
287.3200740419074
 30
0.0
 10
128.3511285824607
 20
286.0706313605583
 30
0.0
 10
128.2877628361439
 20
285.6492021138338
 30
0.0
 10
128.2025173041891
 20
284.7961436785022
 30
0.0
 10
128.1808581036016
 20
284.3628866959752
 30
0.0
 10
128.1804281562628
 20
283.0773603927163
 30
0.0
 10
128.2640707659265
 20
282.230382112887
 30
0.0
 10
128.5138943257722
 20
280.9747302185837
 30
0.0
 10
128.6187025624398
 20
280.5566129080847
 30
0.0
 10
128.8684625472479
 20
279.7356840021052
 30
0.0
 10
129.0125797873976
 20
279.3347657541557
 30
0.0
 10
129.5007696620181
 20
278.159529088237
 30
0.0
 10
129.9001193616145
 20
277.4124697429449
 30
0.0
 10
130.850468896336
 20
275.9917403114865
 30
0.0
 10
131.3888570072837
 20
275.3375892391354
 30
0.0
 10
132.2825442517833
 20
274.4431865286168
 30
0.0
 10
132.5951937668771
 20
274.1592065029092
 30
0.0
 10
133.2508224846033
 20
273.6199878047819
 30
0.0
 10
133.5952310261025
 20
273.364016477825
 30
0.0
 10
134.6534163733846
 20
272.6554938090931
 30
0.0
 10
135.3974958173755
 20
272.2563650488956
 30
0.0
 10
136.9640872144225
 20
271.6036305006327
 30
0.0
 10
137.7938708061363
 20
271.3500063146668
 30
0.0
 10
139.4668286097892
 20
271.0152981102526
 30
0.0
 10
140.3168952053205
 20
270.9300300474527
 30
0.0
 10
141.1807140607425
 20
270.9300300474527
 30
0.0
  0
LINE
  5
BF
330
1F
100
AcDbEntity
  8
0
  6
Continuous
 62
     7
370
    25
100
AcDbLine
 10
171.1807140607
 20
327.8048519844
 30
0.0
 11
111.1807140607
 21
327.8048519844
 31
0.0
  0
LINE
  5
C0
330
1F
100
AcDbEntity
  8
0
  6
Continuous
 62
     7
370
    25
100
AcDbLine
 10
111.1807140607
 20
240.0552081105
 30
0.0
 11
171.1807140607
 21
240.0552081105
 31
0.0
  0
LINE
  5
C1
330
1F
100
AcDbEntity
  8
0
  6
Continuous
 62
     7
370
    25
100
AcDbLine
 10
211.1807140607
 20
350.1452621567
 30
0.0
 11
71.1807140607
 21
350.1452621567
 31
0.0
  0
LINE
  5
C2
330
1F
100
AcDbEntity
  8
0
  6
Continuous
 62
     7
370
    25
100
AcDbLine
 10
71.1807140607
 20
350.1452621567
 30
0.0
 11
71.1807140607
 21
335.1452621567
 31
0.0
  0
LINE
  5
C3
330
1F
100
AcDbEntity
  8
0
  6
Continuous
 62
     7
370
    25
100
AcDbLine
 10
211.1807140607
 20
350.1452621567
 30
0.0
 11
211.1807140607
 21
335.1452621567
 31
0.0
  0
INSERT
  5
CF
330
1F
100
AcDbEntity
  8
FORMAT
100
AcDbBlockReference
  2
SW_CENTERMARKSYMBOL_0
 10
141.1807140607
 20
283.9300300475
 30
0.0
  0
LINE
  5
D0
330
1F
100
AcDbEntity
  8
0
  6
Continuous
 62
     7
370
    25
100
AcDbLine
 10
-23.4994368218
 20
126.7651206834
 30
0.0
 11
-23.4994368218
 21
142.2384285714
 31
0.0
  0
LINE
  5
D1
330
1F
100
AcDbEntity
  8
0
  6
Continuous
 62
     7
370
    25
100
AcDbLine
 10
-37.4994368218
 20
142.2384285714
 30
0.0
 11
-37.4994368218
 21
126.7681583147
 31
0.0
  0
LINE
  5
D2
330
1F
100
AcDbEntity
  8
0
  6
Continuous
 62
     7
370
    25
100
AcDbLine
 10
-46.4994368218
 20
175.2384285714
 30
0.0
 11
-46.4994368218
 21
124.7156960788
 31
0.0
  0
LINE
  5
D3
330
1F
100
AcDbEntity
  8
0
  6
Continuous
 62
     7
370
    25
100
AcDbLine
 10
-14.4994368218
 20
124.7224142175
 30
0.0
 11
-14.4994368218
 21
175.2384285714
 31
0.0
  0
LINE
  5
D4
330
1F
100
AcDbEntity
  8
0
  6
Continuous
 62
     7
370
    25
100
AcDbLine
 10
-96.714668931
 20
66.2384285714
 30
0.0
 11
-81.714668931
 21
66.2384285714
 31
0.0
  0
LINE
  5
D5
330
1F
100
AcDbEntity
  8
0
  6
Continuous
 62
     7
370
    25
100
AcDbLine
 10
-96.714668931
 20
73.2384285714
 30
0.0
 11
-96.714668931
 21
66.2384285714
 31
0.0
  0
LINE
  5
D6
330
1F
100
AcDbEntity
  8
0
  6
Continuous
 62
     7
370
    25
100
AcDbLine
 10
-75.4549704078
 20
73.2384285714
 30
0.0
 11
-96.714668931
 21
73.2384285714
 31
0.0
  0
ARC
  5
D7
330
1F
100
AcDbEntity
  8
0
  6
Continuous
 62
     7
370
    25
100
AcDbCircle
 10
-30.4994368218
 20
75.2384285714
 30
0.0
 40
44.99999999999999
100
AcDbArc
 50
182.5473181826
 51
177.4526818174
  0
LINE
  5
D8
330
1F
100
AcDbEntity
  8
0
  6
Continuous
 62
     7
370
    25
100
AcDbLine
 10
-96.714668931
 20
77.2384285714
 30
0.0
 11
-75.4549704078
 21
77.2384285714
 31
0.0
  0
LINE
  5
D9
330
1F
100
AcDbEntity
  8
0
  6
Continuous
 62
     7
370
    25
100
AcDbLine
 10
-96.714668931
 20
84.2384285714
 30
0.0
 11
-96.714668931
 21
77.2384285714
 31
0.0
  0
LINE
  5
DA
330
1F
100
AcDbEntity
  8
0
  6
Continuous
 62
     7
370
    25
100
AcDbLine
 10
-81.714668931
 20
84.2384285714
 30
0.0
 11
-96.714668931
 21
84.2384285714
 31
0.0
  0
ARC
  5
DB
330
1F
100
AcDbEntity
  8
0
  6
Continuous
 62
     7
370
    25
100
AcDbCircle
 10
-30.4994368218
 20
75.2384285714
 30
0.0
 40
52.0
100
AcDbArc
 50
189.9667663002
 51
170.0332336998
  0
LINE
  5
DC
330
1F
100
AcDbEntity
  8
0
  6
Continuous
 62
     7
370
    25
100
AcDbLine
 10
-37.4994368218
 20
142.2384285714
 30
0.0
 11
-23.4994368218
 21
142.2384285714
 31
0.0
  0
LINE
  5
DD
330
1F
100
AcDbEntity
  8
0
  6
Continuous
 62
     7
370
    25
100
AcDbLine
 10
-46.4994368218
 20
175.2384285714
 30
0.0
 11
-14.4994368218
 21
175.2384285714
 31
0.0
  0
LINE
  5
DE
330
1F
100
AcDbEntity
  8
0
  6
Continuous
 62
     7
370
    25
100
AcDbLine
 10
211.1807140607
 20
-34.0590410903
 30
0.0
 11
71.1807140607
 21
-34.0590410903
 31
0.0
  0
CIRCLE
  5
DF
330
1F
100
AcDbEntity
  8
0
  6
Continuous
 62
     7
370
    25
100
AcDbCircle
 10
141.1807140607
 20
-86.0590410903
 30
0.0
 40
13.00000000000001
  0
CIRCLE
  5
E0
330
1F
100
AcDbEntity
  8
0
  6
Continuous
 62
     7
370
    25
100
AcDbCircle
 10
141.1807140607
 20
-86.0590410903
 30
0.0
 40
16.00000000000001
  0
CIRCLE
  5
E1
330
1F
100
AcDbEntity
  8
0
  6
Continuous
 62
     7
370
    25
100
AcDbCircle
 10
81.1807140607
 20
-86.0590410903
 30
0.0
 40
4.59999999999998
  0
CIRCLE
  5
E2
330
1F
100
AcDbEntity
  8
0
  6
Continuous
 62
     7
370
    25
100
AcDbCircle
 10
81.1807140607
 20
-86.0590410903
 30
0.0
 40
6.999999999999986
  0
CIRCLE
  5
E3
330
1F
100
AcDbEntity
  8
0
  6
Continuous
 62
     7
370
    25
100
AcDbCircle
 10
201.1807140607
 20
-86.0590410903
 30
0.0
 40
4.59999999999998
  0
CIRCLE
  5
E4
330
1F
100
AcDbEntity
  8
0
  6
Continuous
 62
     7
370
    25
100
AcDbCircle
 10
201.1807140607
 20
-86.0590410903
 30
0.0
 40
6.999999999999986
  0
CIRCLE
  5
E5
330
1F
100
AcDbEntity
  8
0
  6
Continuous
 62
     7
370
    25
100
AcDbCircle
 10
81.1807140607
 20
-86.0590410903
 30
0.0
 40
1.5
  0
CIRCLE
  5
E6
330
1F
100
AcDbEntity
  8
0
  6
Continuous
 62
     7
370
    25
100
AcDbCircle
 10
81.1807140607
 20
-86.0590410903
 30
0.0
 40
2.0
  0
CIRCLE
  5
E7
330
1F
100
AcDbEntity
  8
0
  6
Continuous
 62
     7
370
    25
100
AcDbCircle
 10
201.1807140607
 20
-86.0590410903
 30
0.0
 40
1.5
  0
CIRCLE
  5
E8
330
1F
100
AcDbEntity
  8
0
  6
Continuous
 62
     7
370
    25
100
AcDbCircle
 10
201.1807140607
 20
-86.0590410903
 30
0.0
 40
2.0
  0
LINE
  5
E9
330
1F
100
AcDbEntity
  8
0
  6
Continuous
 62
     7
370
    25
100
AcDbLine
 10
211.1807140607
 20
-34.0590410903
 30
0.0
 11
211.1807140607
 21
-137.2742731995
 31
0.0
  0
LINE
  5
EA
330
1F
100
AcDbEntity
  8
0
  6
Continuous
 62
     7
370
    25
100
AcDbLine
 10
211.1807140607
 20
-137.2742731995
 30
0.0
 11
71.1807140607
 21
-137.2742731995
 31
0.0
  0
LINE
  5
EB
330
1F
100
AcDbEntity
  8
0
  6
Continuous
 62
     7
370
    25
100
AcDbLine
 10
71.1807140607
 20
-34.0590410903
 30
0.0
 11
71.1807140607
 21
-137.2742731995
 31
0.0
  0
LINE
  5
EC
330
1F
100
AcDbEntity
  8
0
  6
Continuous
 62
     7
370
    25
100
AcDbLine
 10
211.1807140607
 20
-152.2742731995
 30
0.0
 11
71.1807140607
 21
-152.2742731995
 31
0.0
  0
LINE
  5
ED
330
1F
100
AcDbEntity
  8
0
  6
Continuous
 62
     7
370
    25
100
AcDbLine
 10
71.1807140607
 20
-137.2742731995
 30
0.0
 11
71.1807140607
 21
-152.2742731995
 31
0.0
  0
LINE
  5
EE
330
1F
100
AcDbEntity
  8
0
  6
Continuous
 62
     7
370
    25
100
AcDbLine
 10
211.1807140607
 20
-137.2742731995
 30
0.0
 11
211.1807140607
 21
-152.2742731995
 31
0.0
  0
INSERT
  5
FA
330
1F
100
AcDbEntity
  8
FORMAT
100
AcDbBlockReference
  2
SW_CENTERMARKSYMBOL_1
 10
141.1807140607
 20
-86.0590410903
 30
0.0
  0
INSERT
  5
106
330
1F
100
AcDbEntity
  8
FORMAT
100
AcDbBlockReference
  2
SW_CENTERMARKSYMBOL_2
 10
81.1807140607
 20
-86.0590410903
 30
0.0
  0
INSERT
  5
112
330
1F
100
AcDbEntity
  8
FORMAT
100
AcDbBlockReference
  2
SW_CENTERMARKSYMBOL_3
 10
201.1807140607
 20
-86.0590410903
 30
0.0
  0
LINE
  5
113
330
1F
100
AcDbEntity
  8
0
  6
Continuous
 62
     7
370
    25
100
AcDbLine
 10
409.0257099208
 20
-124.799017065
 30
0.0
 11
437.3099811682
 21
-108.4708548285
 31
0.0
  0
LINE
  5
114
330
1F
100
AcDbEntity
  8
0
  6
Continuous
 62
     7
370
    25
100
AcDbLine
 10
338.3150318021
 20
-165.6194226561
 30
0.0
 11
366.5993030496
 21
-149.2912604197
 31
0.0
  0
LINE
  5
115
330
1F
100
AcDbEntity
  8
0
  6
Continuous
 62
     7
370
    25
100
AcDbLine
 10
385.3142070712
 20
-18.4017731409
 30
0.0
 11
365.6728633107
 21
-29.7404795427
 31
0.0
  0
LINE
  5
116
330
1F
100
AcDbEntity
  8
0
  6
Continuous
 62
     7
370
    25
100
AcDbLine
 10
411.2410263078
 20
-20.9352445009
 30
0.0
 11
411.2410263078
 21
-12.8101201475
 31
0.0
  0
LINE
  5
117
330
1F
100
AcDbEntity
  8
0
  6
Continuous
 62
     7
370
    25
100
AcDbLine
 10
397.2410263078
 20
-12.8101201475
 30
0.0
 11
397.2410263078
 21
-16.0852068475
 31
0.0
  0
LINE
  5
118
330
1F
100
AcDbEntity
  8
0
  6
Continuous
 62
     7
370
    25
100
AcDbLine
 10
345.8146194366
 20
-10.35651671
 30
0.0
 11
345.8146194366
 21
-39.8396813647
 31
0.0
  0
LINE
  5
119
330
1F
100
AcDbEntity
  8
0
  6
Continuous
 62
     7
370
    25
100
AcDbLine
 10
377.8146194366
 20
-22.7311929281
 30
0.0
 11
377.8146194366
 21
-10.35651671
 31
0.0
  0
LINE
  5
11A
330
1F
100
AcDbEntity
  8
0
  6
Continuous
 62
     7
370
    25
100
AcDbLine
 10
364.4908544774
 20
-43.7558549816
 30
0.0
 11
375.0974561952
 21
-49.8789158203
 31
0.0
  0
LINE
  5
11B
330
1F
100
AcDbEntity
  8
0
  6
Continuous
 62
     7
370
    25
100
AcDbLine
 10
364.4908544774
 20
-38.0400692984
 30
0.0
 11
364.4908544774
 21
-43.7558549816
 31
0.0
  0
LINE
  5
11C
330
1F
100
AcDbEntity
  8
0
  6
Continuous
 62
     7
370
    25
100
AcDbLine
 10
379.5237314692
 20
-46.718364463
 30
0.0
 11
364.4908544774
 21
-38.0400692984
 31
0.0
  0
LWPOLYLINE
  5
11D
330
1F
100
AcDbEntity
  8
0
  6
Continuous
 62
     7
370
    25
100
AcDbPolyline
 90
      104
 70
   128
 43
0.0
 10
379.5237314692
 20
-43.4522012155
 10
379.6661951445
 20
-41.3311600959
 10
379.9230761881
 20
-39.2900412922
 10
380.2934458333
 20
-37.3362245738
 10
380.7759649899
 20
-35.4767740652
 10
381.3688890849
 20
-33.7184127049
 10
382.0700743711
 20
-32.0674979385
 10
382.8769856771
 20
-30.5299987328
 10
383.7867055738
 20
-29.111473995
 10
384.7959449223
 20
-27.8170524738
 10
385.901054766
 20
-26.6514142166
 10
387.0980395237
 20
-25.6187736482
 10
388.3825714358
 20
-24.7228643334
 10
389.7500062113
 20
-23.9669254783
 10
391.1953998197
 20
-23.3536902184
 10
392.7135263666
 20
-22.8853757372
 10
394.2988969875
 20
-22.5636752498
 10
395.9457796938
 20
-22.3897518808
 10
397.6482200969
 20
-22.3642344589
 10
399.4000629361
 20
-22.4872152438
 10
401.1949743341
 20
-22.758249592
 10
403.0264646968
 20
-23.1763575651
 10
404.8879121769
 20
-23.7400274722
 10
406.7725866158
 20
-24.4472213359
 10
408.6736738765
 20
-25.2953822607
 10
410.5843004807
 20
-26.2814436772
 10
412.4975584601
 20
-27.4018404299
 10
414.4065303325
 20
-28.652521667
 10
416.3043141123
 20
-30.0289654864
 10
418.184048265
 20
-31.526195285
 10
420.0389365157
 20
-33.1387977518
 10
421.8622724208
 20
-34.86094244
 10
423.647463616
 20
-36.6864028473
 10
425.3880556511
 20
-38.6085789281
 10
427.0777553265
 20
-40.6205209564
 10
428.7104534465
 20
-42.7149546527
 10
430.2802469074
 20
-44.8843074847
 10
431.7814600406
 20
-47.1207360463
 10
433.2086651331
 20
-49.4161544154
 10
434.5567020519
 20
-51.7622633893
 10
435.8206969004
 20
-54.1505804909
 10
436.9960796405
 20
-56.5724706376
 10
438.0786006157
 20
-59.0191773613
 10
439.0643459161
 20
-61.4818544686
 10
439.949751529
 20
-63.9515980244
 10
440.731616225
 20
-66.4194785444
 10
441.4071131324
 20
-68.8765732802
 10
441.9737999575
 20
-71.3139984799
 10
442.4296278149
 20
-73.7229415079
 10
442.7729486359
 20
-76.0946927074
 10
443.0025211263
 20
-78.4206768903
 10
443.1175152551
 20
-80.6924843419
 10
443.1175152551
 20
-82.9019012259
 10
443.0025211263
 20
-85.0409392825
 10
442.7729486359
 20
-87.1018647099
 10
442.4296278149
 20
-89.0772261269
 10
441.9737999575
 20
-90.959881513
 10
441.4071131324
 20
-92.7430240313
 10
440.731616225
 20
-94.4202066387
 10
439.949751529
 20
-95.9853653956
 10
439.0643459161
 20
-97.4328413904
 10
438.0786006157
 20
-98.7574011995
 10
436.9960796405
 20
-99.954255809
 10
435.8206969004
 20
-101.0190779299
 10
434.5567020519
 20
-101.9480176432
 10
433.2086651331
 20
-102.7377163198
 10
431.7814600406
 20
-103.3853187638
 10
430.2802469074
 20
-103.8884835353
 10
428.7104534465
 20
-104.2453914164
 10
427.0777553265
 20
-104.4547519883
 10
425.3880556511
 20
-104.5158082971
 10
423.647463616
 20
-104.4283395906
 10
421.8622724208
 20
-104.1926621165
 10
420.0389365157
 20
-103.8096279787
 10
418.184048265
 20
-103.2806220567
 10
416.3043141123
 20
-102.6075569985
 10
414.4065303325
 20
-101.7928663054
 10
412.4975584601
 20
-100.8394955332
 10
410.5843004807
 20
-99.7508916428
 10
408.6736738765
 20
-98.5309905373
 10
406.7725866158
 20
-97.1842028317
 10
404.8879121769
 20
-95.7153979057
 10
403.0264646968
 20
-94.1298862989
 10
401.1949743341
 20
-92.4334005097
 10
399.4000629361
 20
-90.6320742692
 10
397.6482200969
 20
-88.7324203649
 10
395.9457796938
 20
-86.7413070925
 10
394.2988969875
 20
-84.6659334242
 10
392.7135263666
 20
-82.5138029797
 10
391.1953998197
 20
-80.2926968968
 10
389.7500062113
 20
-78.0106456983
 10
388.3825714358
 20
-75.6759002572
 10
387.0980395237
 20
-73.2969019652
 10
385.901054766
 20
-70.8822522124
 10
384.7959449223
 20
-68.4406812886
 10
383.7867055738
 20
-65.9810168186
 10
382.8769856771
 20
-63.5121518452
 10
382.0700743711
 20
-61.0430126761
 10
381.3688890849
 20
-58.5825266105
 10
380.7759649899
 20
-56.1395896617
 10
380.2934458333
 20
-53.7230343933
 10
379.9230761881
 20
-51.3415979846
 10
379.6661951445
 20
-49.003890641
 10
379.5237314692
 20
-46.718364463
  0
LINE
  5
11E
330
1F
100
AcDbEntity
  8
0
  6
Continuous
 62
     7
370
    25
100
AcDbLine
 10
364.4908544774
 20
-34.7739060509
 30
0.0
 11
379.5237314692
 21
-43.4522012155
 31
0.0
  0
LINE
  5
11F
330
1F
100
AcDbEntity
  8
0
  6
Continuous
 62
     7
370
    25
100
AcDbLine
 10
364.4908544774
 20
-29.0581203677
 30
0.0
 11
364.4908544774
 21
-34.7739060509
 31
0.0
  0
LINE
  5
120
330
1F
100
AcDbEntity
  8
0
  6
Continuous
 62
     7
370
    25
100
AcDbLine
 10
375.0974561952
 20
-35.1811812063
 30
0.0
 11
364.4908544774
 21
-29.0581203677
 31
0.0
  0
LWPOLYLINE
  5
121
330
1F
100
AcDbEntity
  8
0
  6
Continuous
 62
     7
370
    25
100
AcDbPolyline
 90
      107
 70
   128
 43
0.0
 10
375.0974561952
 20
-49.8789158203
 10
375.510364524
 20
-52.446140204
 10
376.0354905007
 20
-55.0478124054
 10
376.6711881601
 20
-57.6757776916
 10
377.4154649589
 20
-60.3217989166
 10
378.2659880213
 20
-62.977582339
 10
379.2200914509
 20
-65.634803619
 10
380.2747846871
 20
-68.2851339097
 10
381.4267618786
 20
-70.9202659635
 10
382.6724122454
 20
-73.5319401705
 10
384.0078313964
 20
-76.1119704475
 10
385.4288335674
 20
-78.6522698966
 10
386.9309647412
 20
-81.1448761532
 10
388.5095166082
 20
-83.581976343
 10
390.1595413242
 20
-85.9559315711
 10
391.8758670192
 20
-88.2593008653
 10
393.6531140081
 20
-90.4848644994
 10
395.4857116529
 20
-92.6256466229
 10
397.3679158232
 20
-94.674937126
 10
399.2938269012
 20
-96.6263126722
 10
401.2574082733
 20
-98.4736568313
 10
403.2525052511
 20
-100.2111792514
 10
405.2728643633
 20
-101.8334338079
 10
407.3121529565
 20
-103.3353356741
 10
409.3639790442
 20
-104.7121772592
 10
411.4219113423
 20
-105.9596429637
 10
413.4794994271
 20
-107.0738227065
 10
415.530293954
 20
-108.0512241806
 10
417.567866872
 20
-108.8887837995
 10
419.5858315724
 20
-109.5838762999
 10
421.5778629068
 20
-110.13432297
 10
423.5377170129
 20
-110.5383984791
 10
425.4592508853
 20
-110.7948362847
 10
427.3364416303
 20
-110.9028326033
 10
429.1634053441
 20
-110.8620489289
 10
430.9344155557
 20
-110.6726130949
 10
432.6439211756
 20
-110.3351188725
 10
434.2865638958
 20
-109.8506241103
 10
435.8571949844
 20
-109.2206474183
 10
437.3508914243
 20
-108.4471634079
 10
438.7629713441
 20
-107.5325965026
 10
440.0890086924
 20
-106.479813339
 10
441.3248471116
 20
-105.2921137813
 10
442.4666129654
 20
-103.9732205786
 10
443.5107274804
 20
-102.5272676957
 10
444.4539179635
 20
-100.9587873559
 10
445.2932280597
 20
-99.2726958349
 10
446.026027019
 20
-97.4742780513
 10
446.6500179417
 20
-95.5691710012
 10
447.1632449785
 20
-93.5633460898
 10
447.5640994604
 20
-91.4630904144
 10
447.8513249412
 20
-89.2749870576
 10
448.0240211356
 20
-87.005894454
 10
448.0816467414
 20
-84.6629248921
 10
448.0240211356
 20
-82.253422222
 10
447.8513249412
 20
-79.7849388364
 10
447.5640994604
 20
-77.2652119984
 10
447.1632449785
 20
-74.7021395895
 10
446.6500179417
 20
-72.1037553544
 10
446.026027019
 20
-69.47820372
 10
445.2932280597
 20
-66.8337142672
 10
444.4539179635
 20
-64.1785759358
 10
443.5107274804
 20
-61.521111044
 10
442.4666129654
 20
-58.869649202
 10
441.3248471116
 20
-56.2325012043
 10
440.0890086924
 20
-53.6179329796
 10
438.7629713441
 20
-51.0341396821
 10
437.3508914243
 20
-48.4892200045
 10
435.8571949844
 20
-45.9911507933
 10
434.2865638958
 20
-43.547762046
 10
432.6439211756
 20
-41.1667123684
 10
430.9344155557
 20
-38.8554649698
 10
429.1634053441
 20
-36.6212642695
 10
427.3364416303
 20
-34.4711131903
 10
425.4592508853
 20
-32.4117512082
 10
423.5377170129
 20
-30.4496332281
 10
421.5778629068
 20
-28.5909093512
 10
419.5858315724
 20
-26.8414055985
 10
417.567866872
 20
-25.2066056489
 10
415.530293954
 20
-23.6916336518
 10
413.4794994271
 20
-22.3012381652
 10
411.4219113423
 20
-21.0397772722
 10
409.3639790442
 20
-19.9112049207
 10
407.3121529565
 20
-18.9190585302
 10
405.2728643633
 20
-18.0664479039
 10
403.2525052511
 20
-17.3560454814
 10
401.2574082733
 20
-16.7900779621
 10
399.2938269012
 20
-16.3703193257
 10
397.3679158232
 20
-16.098085272
 10
395.4857116529
 20
-15.9742290968
 10
393.6531140081
 20
-15.9991390173
 10
391.8758670192
 20
-16.1727369554
 10
390.1595413242
 20
-16.4944787822
 10
388.5095166082
 20
-16.9633560239
 10
386.9309647412
 20
-17.5778990223
 10
385.4288335674
 20
-18.3361815418
 10
384.0078313964
 20
-19.2358268066
 10
382.6724122454
 20
-20.2740149509
 10
381.4267618786
 20
-21.4474918572
 10
380.2747846871
 20
-22.7525793565
 10
379.2200914509
 20
-24.1851867566
 10
378.2659880213
 20
-25.7408236646
 10
377.4154649589
 20
-27.4146140616
 10
376.6711881601
 20
-29.2013115859
 10
376.0354905007
 20
-31.0953159774
 10
375.510364524
 20
-33.0906906315
 10
375.0974561952
 20
-35.1811812063
  0
LINE
  5
122
330
1F
100
AcDbEntity
  8
0
  6
Continuous
 62
     7
370
    25
100
AcDbLine
 10
375.0974561952
 20
-49.8789158203
 30
0.0
 11
276.1025068291
 21
-107.0274836479
 31
0.0
  0
LWPOLYLINE
  5
123
330
1F
100
AcDbEntity
  8
0
  6
Continuous
 62
     7
370
    25
100
AcDbPolyline
 90
       40
 70
   128
 43
0.0
 10
276.1025068291
 20
-107.0274836479
 10
276.5154151579
 20
-109.5947080316
 10
277.0405411346
 20
-112.196380233
 10
277.676238794
 20
-114.8243455192
 10
278.4205155928
 20
-117.4703667442
 10
279.2710386552
 20
-120.1261501666
 10
280.2251420847
 20
-122.7833714466
 10
281.2798353209
 20
-125.4337017373
 10
282.4318125125
 20
-128.0688337911
 10
283.6774628793
 20
-130.680507998
 10
285.0128820303
 20
-133.260538275
 10
286.4338842013
 20
-135.8008377242
 10
287.9360153751
 20
-138.2934439808
 10
289.5145672421
 20
-140.7305441706
 10
291.1645919581
 20
-143.1044993987
 10
292.8809176531
 20
-145.4078686929
 10
294.658164642
 20
-147.633432327
 10
296.4907622868
 20
-149.7742144505
 10
298.3729664571
 20
-151.8235049536
 10
300.2988775351
 20
-153.7748804998
 10
302.2624589071
 20
-155.6222246589
 10
304.2575558849
 20
-157.359747079
 10
306.2779149972
 20
-158.9820016355
 10
308.3172035904
 20
-160.4839035017
 10
310.3690296781
 20
-161.8607450868
 10
312.4269619762
 20
-163.1082107913
 10
314.484550061
 20
-164.2223905341
 10
316.5353445878
 20
-165.1997920082
 10
318.5729175058
 20
-166.0373516271
 10
320.5908822063
 20
-166.7324441275
 10
322.5829135407
 20
-167.2828907976
 10
324.5427676468
 20
-167.6869663067
 10
326.4643015192
 20
-167.9434041123
 10
328.3414922642
 20
-168.0514004309
 10
330.168455978
 20
-168.0106167565
 10
331.9394661896
 20
-167.8211809225
 10
333.6489718095
 20
-167.4836867001
 10
335.2916145297
 20
-166.9991919379
 10
336.8622456183
 20
-166.3692152459
 10
338.3150318021
 20
-165.6194226561
  0
LINE
  5
124
330
1F
100
AcDbEntity
  8
0
  6
Continuous
 62
     7
370
    25
100
AcDbLine
 10
304.5181788957
 20
-91.5917183015
 30
0.0
 11
346.9445857669
 21
-67.0994749469
 31
0.0
  0
LWPOLYLINE
  5
125
330
1F
100
AcDbEntity
  8
0
  6
Continuous
 62
     7
370
    25
100
AcDbPolyline
 90
       50
 70
   128
 43
0.0
 10
376.6846531064
 20
-133.2525370879
 10
376.2303577765
 20
-135.3185158733
 10
375.6634975857
 20
-137.2863590812
 10
374.9858634528
 20
-139.149849575
 10
374.1995962718
 20
-140.9030999064
 10
373.3071801484
 20
-142.5405709164
 10
372.3114345517
 20
-144.057089235
 10
371.2155054061
 20
-145.447863626
 10
370.0228551528
 20
-146.7085001243
 10
368.7372518103
 20
-147.8350159182
 10
367.3627570698
 20
-148.823851932
 10
365.903713463
 20
-149.6718840712
 10
364.3647306424
 20
-150.3764330919
 10
362.7506708177
 20
-150.9352730661
 10
361.0666333944
 20
-151.3466384138
 10
359.3179388628
 20
-151.6092294814
 10
357.5101119885
 20
-151.7222166477
 10
355.6488643581
 20
-151.6852429448
 10
353.7400763336
 20
-151.4984251863
 10
351.7897784748
 20
-151.1623535978
 10
349.8041324859
 20
-150.6780899523
 10
347.7894117492
 20
-150.0471642159
 10
345.7519815043
 20
-149.2715697138
 10
343.6982787388
 20
-148.3537568327
 10
341.6347918511
 20
-147.2966252794
 10
339.568040151
 20
-146.103514919
 10
337.5045532632
 20
-144.7781952237
 10
335.4508504978
 20
-143.3248533632
 10
333.4134202529
 20
-141.7480809761
 10
331.3986995162
 20
-140.0528596633
 10
329.4130535273
 20
-138.2445452489
 10
327.4627556684
 20
-136.3288508598
 10
325.553967644
 20
-134.3118288753
 10
323.6927200135
 20
-132.1998518057
 10
321.8848931393
 20
-129.9995921593
 10
320.1361986076
 20
-127.718001361
 10
318.4521611843
 20
-125.362287791
 10
316.8381013597
 20
-122.9398940102
 10
315.2991185391
 20
-120.4584732466
 10
313.8400749323
 20
-117.9258652162
 10
312.4655801918
 20
-115.3500713543
 10
311.1799768492
 20
-112.7392295359
 10
309.987326596
 20
-110.1015883655
 10
308.8913974504
 20
-107.4454811164
 10
307.8956518536
 20
-104.7792994031
 10
307.0032357303
 20
-102.1114666689
 10
306.2169685493
 20
-99.4504115735
 10
305.5393344164
 20
-96.8045413633
 10
304.9724742256
 20
-94.1822153102
 10
304.5181788957
 20
-91.5917183015
  0
LINE
  5
126
330
1F
100
AcDbEntity
  8
0
  6
Continuous
 62
     7
370
    25
100
AcDbLine
 10
390.0930260499
 20
-125.5120481486
 30
0.0
 11
376.6846531064
 21
-133.2525370879
 31
0.0
  0
LWPOLYLINE
  5
127
330
1F
100
AcDbEntity
  8
0
  6
Continuous
 62
     7
370
    25
100
AcDbPolyline
 90
       40
 70
   128
 43
0.0
 10
346.9445857669
 20
-67.0994749469
 10
347.3988810968
 20
-69.6899719555
 10
347.9657412875
 20
-72.3122980086
 10
348.6433754205
 20
-74.9581682188
 10
349.4296426015
 20
-77.6192233143
 10
350.3220587248
 20
-80.2870560484
 10
351.3178043216
 20
-82.9532377617
 10
352.4137334672
 20
-85.6093450108
 10
353.6063837204
 20
-88.2469861812
 10
354.8919870629
 20
-90.8578279996
 10
356.2664818035
 20
-93.4336218615
 10
357.7255254103
 20
-95.9662298919
 10
359.2645082309
 20
-98.4476506555
 10
360.8785680555
 20
-100.8700444363
 10
362.5626054788
 20
-103.2257580064
 10
364.3113000105
 20
-105.5073488046
 10
366.1191268847
 20
-107.707608451
 10
367.9803745152
 20
-109.8195855206
 10
369.8891625396
 20
-111.8366075051
 10
371.8394603985
 20
-113.7523018942
 10
373.8251063873
 20
-115.5606163086
 10
375.8398271241
 20
-117.2558376214
 10
377.877257369
 20
-118.8326100085
 10
379.9309601344
 20
-120.285951869
 10
381.9944470222
 20
-121.6112715643
 10
384.0611987223
 20
-122.8043819247
 10
386.12468561
 20
-123.8615134781
 10
388.1783883755
 20
-124.7793263591
 10
390.2158186203
 20
-125.5549208612
 10
392.2305393571
 20
-126.1858465976
 10
394.216185346
 20
-126.6701102431
 10
396.1664832048
 20
-127.0061818316
 10
398.0752712293
 20
-127.1929995901
 10
399.9365188597
 20
-127.229973293
 10
401.744345734
 20
-127.1169861267
 10
403.4930402656
 20
-126.8543950591
 10
405.1770776889
 20
-126.4430297114
 10
406.7911375136
 20
-125.8841897372
 10
408.3301203342
 20
-125.1796407165
 10
409.0257099208
 20
-124.799017065
  0
LINE
  5
128
330
1F
100
AcDbEntity
  8
0
  6
Continuous
 62
     7
370
    25
100
AcDbLine
 10
379.5237314692
 20
-43.4522012155
 30
0.0
 11
376.6948446081
 21
-45.0852828393
 31
0.0
  0
LWPOLYLINE
  5
129
330
1F
100
AcDbEntity
  8
0
  6
Continuous
 62
     7
370
    25
100
AcDbPolyline
 90
       26
 70
   128
 43
0.0
 10
319.3932547745
 20
-88.8455780326
 10
321.0439871496
 20
-90.2873655794
 10
322.8673230547
 20
-92.0095102676
 10
324.6525142498
 20
-93.8349706749
 10
326.393106285
 20
-95.7571467557
 10
328.0828059604
 20
-97.769088784
 10
329.7155040804
 20
-99.8635224803
 10
331.2852975413
 20
-102.0328753123
 10
332.7865106745
 20
-104.2693038739
 10
334.213715767
 20
-106.5647222429
 10
335.5617526858
 20
-108.9108312169
 10
336.8257475343
 20
-111.2991483185
 10
338.0011302744
 20
-113.7210384651
 10
339.0836512496
 20
-116.1677451888
 10
340.06939655
 20
-118.6304222962
 10
340.9548021629
 20
-121.100165852
 10
341.7366668589
 20
-123.568046372
 10
342.4121637663
 20
-126.0251411078
 10
342.9788505913
 20
-128.4625663075
 10
343.4346784488
 20
-130.8715093355
 10
343.7779992698
 20
-133.2432605349
 10
344.0075717602
 20
-135.5692447179
 10
344.122565889
 20
-137.8410521695
 10
344.122565889
 20
-140.0504690535
 10
344.0075717602
 20
-142.1895071101
 10
343.9587866796
 20
-142.7341192282
  0
LINE
  5
12A
330
1F
100
AcDbEntity
  8
0
  6
Continuous
 62
     7
370
    25
100
AcDbLine
 10
347.9738011532
 20
-72.3463798035
 30
0.0
 11
309.5772318861
 21
-94.5122474277
 31
0.0
  0
LINE
  5
12B
330
1F
100
AcDbEntity
  8
0
  6
Continuous
 62
     7
370
    25
100
AcDbLine
 10
371.625600116
 20
-130.3320079618
 30
0.0
 11
384.3733250657
 21
-122.9729029913
 31
0.0
  0
LWPOLYLINE
  5
12C
330
1F
100
AcDbEntity
  8
0
  6
Continuous
 62
     7
370
    25
100
AcDbPolyline
 90
       45
 70
   128
 43
0.0
 10
309.5772318861
 20
-94.5122474277
 10
310.0679160632
 20
-96.9718698684
 10
310.6729774286
 20
-99.4587810455
 10
311.3901494482
 20
-101.9636650955
 10
312.2167456262
 20
-104.4771388299
 10
313.1496695686
 20
-106.9897868831
 10
314.1854265821
 20
-109.4921969828
 10
315.3201367652
 20
-111.9749952075
 10
316.5495495418
 20
-114.4288811008
 10
317.8690595842
 20
-116.8446625111
 10
319.273724064
 20
-119.213290024
 10
320.758281168
 20
-121.5258908621
 10
322.3171698087
 20
-123.7738021212
 10
323.9445504556
 20
-125.9486032216
 10
325.6343270103
 20
-128.0421474513
 10
327.3801696419
 20
-130.0465924827
 10
329.1755384984
 20
-131.9544297503
 10
331.0137082046
 20
-133.7585125772
 10
332.8877930552
 20
-135.452082946
 10
334.7907728084
 20
-137.0287968143
 10
336.715518983
 20
-138.4827478792
 10
338.6548215622
 20
-139.8084897021
 10
340.601416001
 20
-141.0010561107
 10
342.5480104399
 20
-142.0559798021
 10
344.487313019
 20
-142.9693090771
 10
346.4120591937
 20
-143.7376226431
 10
348.3150389468
 20
-144.3580424305
 10
350.1891237974
 20
-144.8282443731
 10
352.0272935036
 20
-145.1464671145
 10
353.8226623601
 20
-145.3115186058
 10
355.5685049917
 20
-145.3227805713
 10
357.2582815465
 20
-145.1802108241
 10
358.8856621934
 20
-144.8843434244
 10
360.444550834
 20
-144.4362866788
 10
361.929107938
 20
-143.8377189888
 10
363.3337724179
 20
-143.0908825634
 10
364.6532824603
 20
-142.1985750201
 10
365.8826952369
 20
-141.1641389048
 10
367.0174054199
 20
-139.991449171
 10
368.0531624335
 20
-138.6848986646
 10
368.9860863759
 20
-137.2493816679
 10
369.8126825539
 20
-135.6902755664
 10
370.5298545735
 20
-134.0134207051
 10
371.1349159389
 20
-132.2250985106
 10
371.625600116
 20
-130.3320079618
  0
LINE
  5
12D
330
1F
100
AcDbEntity
  8
0
  6
Continuous
 62
     7
370
    25
100
AcDbLine
 10
364.4908544774
 20
-38.0400692984
 30
0.0
 11
265.4959051113
 21
-95.188637126
 31
0.0
  0
LINE
  5
12E
330
1F
100
AcDbEntity
  8
0
  6
Continuous
 62
     7
370
    25
100
AcDbLine
 10
364.4908544774
 20
-43.7558549816
 30
0.0
 11
265.4959051113
 21
-100.9044228092
 31
0.0
  0
LINE
  5
12F
330
1F
100
AcDbEntity
  8
0
  6
Continuous
 62
     7
370
    25
100
AcDbLine
 10
265.4959051113
 20
-95.188637126
 30
0.0
 11
265.4959051113
 21
-100.9044228092
 31
0.0
  0
LINE
  5
130
330
1F
100
AcDbEntity
  8
0
  6
Continuous
 62
     7
370
    25
100
AcDbLine
 10
265.4959051113
 20
-100.9044228092
 30
0.0
 11
276.1025068291
 21
-107.0274836479
 31
0.0
  0
LINE
  5
131
330
1F
100
AcDbEntity
  8
0
  6
Continuous
 62
     7
370
    25
100
AcDbLine
 10
364.4908544774
 20
-29.0581203677
 30
0.0
 11
265.4959051113
 21
-86.2066881953
 31
0.0
  0
LINE
  5
132
330
1F
100
AcDbEntity
  8
0
  6
Continuous
 62
     7
370
    25
100
AcDbLine
 10
364.4908544774
 20
-34.7739060509
 30
0.0
 11
265.4959051113
 21
-91.9224738785
 31
0.0
  0
LINE
  5
133
330
1F
100
AcDbEntity
  8
0
  6
Continuous
 62
     7
370
    25
100
AcDbLine
 10
265.4959051113
 20
-86.2066881953
 30
0.0
 11
265.4959051113
 21
-91.9224738785
 31
0.0
  0
LINE
  5
134
330
1F
100
AcDbEntity
  8
0
  6
Continuous
 62
     7
370
    25
100
AcDbLine
 10
265.4959051113
 20
-91.9224738785
 30
0.0
 11
268.3247919724
 21
-93.5555555022
 31
0.0
  0
LINE
  5
135
330
1F
100
AcDbEntity
  8
0
  6
Continuous
 62
     7
370
    25
100
AcDbLine
 10
309.5772318861
 20
-94.5122474277
 30
0.0
 11
304.5181788957
 21
-91.5917183015
 31
0.0
  0
LINE
  5
136
330
1F
100
AcDbEntity
  8
0
  6
Continuous
 62
     7
370
    25
100
AcDbLine
 10
376.6846531064
 20
-133.2525370879
 30
0.0
 11
371.625600116
 21
-130.3320079618
 31
0.0
  0
LWPOLYLINE
  5
137
330
1F
100
AcDbEntity
  8
0
  6
Continuous
 62
     7
370
    25
100
AcDbPolyline
 90
       22
 70
   128
 43
0.0
 10
397.2410263078
 20
-12.8101201475
 10
397.273110275
 20
-12.4236622799
 10
397.456960407
 20
-11.8141608313
 10
397.7998232937
 20
-11.2280038249
 10
398.2936625197
 20
-10.6789302842
 10
398.9269029123
 20
-10.1798100275
 10
399.6847018531
 20
-9.7423420107
 10
400.5492971774
 20
-9.3767801133
 10
401.5004235036
 20
-9.0916927964
 10
402.5157872367
 20
-8.893762265
 10
403.5715891113
 20
-8.7876278429
 10
404.6430820265
 20
-8.7757772312
 10
405.7051510963
 20
-8.8584881981
 10
406.7329023221
 20
-9.0338220687
 10
407.7022460861
 20
-9.2976691655
 10
408.5904617921
 20
-9.6438451364
 10
409.3767304168
 20
-10.0642359099
 10
410.0426224899
 20
-10.5489878827
 10
410.5725300658
 20
-11.0867388793
 10
410.9540325599
 20
-11.6648844721
 10
411.1781878771
 20
-12.2698734185
 10
411.2410263078
 20
-12.8101201475
  0
LWPOLYLINE
  5
138
330
1F
100
AcDbEntity
  8
0
  6
Continuous
 62
     7
370
    25
100
AcDbPolyline
 90
       25
 70
   128
 43
0.0
 10
350.5009109376
 20
-3.8252518154
 10
351.7035468215
 20
-3.1980045135
 10
353.0099359928
 20
-2.6442132339
 10
354.4066731309
 20
-2.1695606243
 10
355.8794258227
 20
-1.7789172628
 10
357.4130816326
 20
-1.4762916791
 10
358.9919031765
 20
-1.264789221
 10
360.599689609
 20
-1.14658019
 10
362.2199428656
 20
-1.1228775708
 10
363.8360369554
 20
-1.1939245842
 10
365.431388566
 20
-1.3589921918
 10
366.989627231
 20
-1.6163865766
 10
368.4947633132
 20
-1.9634665238
 10
369.9313520795
 20
-2.3966705236
 10
371.2846521852
 20
-2.9115533166
 10
372.5407769399
 20
-3.5028315087
 10
373.6868368038
 20
-4.1644377854
 10
374.7110716519
 20
-4.8895831711
 10
375.6029714485
 20
-5.6708266929
 10
376.3533840949
 20
-6.5001517351
 10
376.9546093418
 20
-7.3690483003
 10
377.4004778046
 20
-8.2686003341
 10
377.6864142694
 20
-9.1895772154
 10
377.8094846414
 20
-10.122528475
 10
377.8146194366
 20
-10.35651671
  0
ARC
  5
139
330
1F
100
AcDbEntity
  8
0
  6
Continuous
 62
     7
370
    25
100
AcDbCircle
 10
353.7815867203
 20
-11.1260700161
 30
0.0
 40
8.004047725399042
100
AcDbArc
 50
114.1971139655
 51
174.4827450769
  0
ENDSEC
  0
SECTION
  2
OBJECTS
  0
DICTIONARY
  5
C
330
0
100
AcDbDictionary
281
     1
  3
ACAD_GROUP
350
D
  3
ACAD_LAYOUT
350
1A
  3
ACAD_MLINESTYLE
350
17
  3
ACAD_PLOTSETTINGS
350
19
  3
ACAD_PLOTSTYLENAME
350
E
  3
ACAD_SCALELIST
350
47
  3
DWGPROPS
350
13A
  0
DICTIONARY
  5
D
102
{ACAD_REACTORS
330
C
102
}
330
C
100
AcDbDictionary
281
     1
  0
DICTIONARY
  5
1A
102
{ACAD_REACTORS
330
C
102
}
330
C
100
AcDbDictionary
281
     1
  3
Layout1
350
1E
  3
Layout2
350
26
  3
Model
350
22
  0
DICTIONARY
  5
17
102
{ACAD_REACTORS
330
C
102
}
330
C
100
AcDbDictionary
281
     1
  3
Standard
350
18
  0
DICTIONARY
  5
19
102
{ACAD_REACTORS
330
C
102
}
330
C
100
AcDbDictionary
281
     1
  0
ACDBDICTIONARYWDFLT
  5
E
102
{ACAD_REACTORS
330
C
102
}
330
C
100
AcDbDictionary
281
     1
  3
Normal
350
F
100
AcDbDictionaryWithDefault
340
F
  0
DICTIONARY
  5
47
102
{ACAD_REACTORS
330
C
102
}
330
C
100
AcDbDictionary
281
     1
  3
A0
350
48
  3
A1
350
49
  3
A2
350
4A
  3
A3
350
4B
  3
A4
350
4C
  3
A5
350
4D
  3
A6
350
4E
  3
A7
350
4F
  3
A8
350
50
  3
A9
350
51
  3
B0
350
52
  3
B1
350
53
  3
B2
350
54
  3
B3
350
55
  3
B4
350
56
  3
B5
350
57
  3
B6
350
58
  3
B7
350
59
  3
B8
350
5A
  3
B9
350
5B
  3
C0
350
5C
  3
C1
350
5D
  3
C2
350
5E
  3
C3
350
5F
  3
C4
350
60
  3
C5
350
61
  3
C6
350
62
  3
C7
350
63
  3
C8
350
64
  3
C9
350
65
  3
D0
350
66
  3
D1
350
67
  3
D2
350
68
  0
XRECORD
  5
13A
102
{ACAD_REACTORS
330
C
102
}
330
C
100
AcDbXrecord
280
     1
  1
DWGPROPS COOKIE
  2

  3

  4

  6

  7

  8
b.kav
  9

300
=
301
=
302
=
303
=
304
=
305
=
306
=
307
=
308
=
309
=
 40
0.0
 41
2459741.489447685
 42
2459741.489447917
  1

 90
        0
  0
LAYOUT
  5
1E
102
{ACAD_REACTORS
330
1A
102
}
330
1A
100
AcDbPlotSettings
  1

  2
none_device
  4

  6

 40
0.0
 41
0.0
 42
0.0
 43
0.0
 44
0.0
 45
0.0
 46
0.0
 47
0.0
 48
0.0
 49
0.0
140
0.0
141
0.0
142
1.0
143
1.0
 70
   688
 72
     1
 73
     0
 74
     5
  7

 75
    16
147
1.0
148
0.0
149
0.0
100
AcDbLayout
  1
Layout1
 70
     1
 71
     1
 10
0.0
 20
0.0
 11
420.0
 21
297.0
 12
0.0
 22
0.0
 32
0.0
 14
1.0000000000E+20
 24
1.0000000000E+20
 34
1.0000000000E+20
 15
-1.0000000000E+20
 25
-1.0000000000E+20
 35
-1.0000000000E+20
146
0.0
 13
0.0
 23
0.0
 33
0.0
 16
1.0
 26
0.0
 36
0.0
 17
0.0
 27
1.0
 37
0.0
 76
     0
330
1B
  0
LAYOUT
  5
26
102
{ACAD_REACTORS
330
1A
102
}
330
1A
100
AcDbPlotSettings
  1

  2
none_device
  4

  6

 40
0.0
 41
0.0
 42
0.0
 43
0.0
 44
0.0
 45
0.0
 46
0.0
 47
0.0
 48
0.0
 49
0.0
140
0.0
141
0.0
142
1.0
143
1.0
 70
   688
 72
     1
 73
     0
 74
     5
  7

 75
    16
147
1.0
148
0.0
149
0.0
100
AcDbLayout
  1
Layout2
 70
     1
 71
     2
 10
0.0
 20
0.0
 11
0.0
 21
0.0
 12
0.0
 22
0.0
 32
0.0
 14
0.0
 24
0.0
 34
0.0
 15
0.0
 25
0.0
 35
0.0
146
0.0
 13
0.0
 23
0.0
 33
0.0
 16
1.0
 26
0.0
 36
0.0
 17
0.0
 27
1.0
 37
0.0
 76
     0
330
23
  0
LAYOUT
  5
22
102
{ACAD_REACTORS
330
1A
102
}
330
1A
100
AcDbPlotSettings
  1

  2
none_device
  4
Letter_(8.50_x_11.00_Inches)
  6

 40
6.35
 41
6.35
 42
6.35000508
 43
6.35000508
 44
215.9
 45
279.4
 46
0.0
 47
0.0
 48
0.0
 49
0.0
140
0.0
141
0.0
142
1.0
143
1.0
 70
  1712
 72
     1
 73
     0
 74
     0
  7

 75
     0
147
1.0
148
0.0
149
0.0
100
AcDbLayout
  1
Model
 70
     1
 71
     0
 10
0.0
 20
0.0
 11
279.4
 21
215.9
 12
0.0
 22
0.0
 32
0.0
 14
0.0
 24
0.0
 34
0.0
 15
279.4
 25
215.9
 35
0.0
146
0.0
 13
0.0
 23
0.0
 33
0.0
 16
1.0
 26
0.0
 36
0.0
 17
0.0
 27
1.0
 37
0.0
 76
     0
330
1F
331
29
  0
MLINESTYLE
  5
18
102
{ACAD_REACTORS
330
17
102
}
330
17
100
AcDbMlineStyle
  2
Standard
 70
     0
  3

 62
   256
 51
90.0
 52
90.0
 71
     2
 49
0.5
 62
   256
  6
BYLAYER
 49
-0.5
 62
   256
  6
BYLAYER
  0
ACDBPLACEHOLDER
  5
F
102
{ACAD_REACTORS
330
E
102
}
330
E
  0
SCALE
  5
48
102
{ACAD_REACTORS
330
47
102
}
330
47
100
AcDbScale
 70
     0
300
1:1
140
1.0
141
1.0
290
     1
  0
SCALE
  5
49
102
{ACAD_REACTORS
330
47
102
}
330
47
100
AcDbScale
 70
     0
300
1:2
140
1.0
141
2.0
290
     0
  0
SCALE
  5
4A
102
{ACAD_REACTORS
330
47
102
}
330
47
100
AcDbScale
 70
     0
300
1:4
140
1.0
141
4.0
290
     0
  0
SCALE
  5
4B
102
{ACAD_REACTORS
330
47
102
}
330
47
100
AcDbScale
 70
     0
300
1:5
140
1.0
141
5.0
290
     0
  0
SCALE
  5
4C
102
{ACAD_REACTORS
330
47
102
}
330
47
100
AcDbScale
 70
     0
300
1:8
140
1.0
141
8.0
290
     0
  0
SCALE
  5
4D
102
{ACAD_REACTORS
330
47
102
}
330
47
100
AcDbScale
 70
     0
300
1:10
140
1.0
141
10.0
290
     0
  0
SCALE
  5
4E
102
{ACAD_REACTORS
330
47
102
}
330
47
100
AcDbScale
 70
     0
300
1:16
140
1.0
141
16.0
290
     0
  0
SCALE
  5
4F
102
{ACAD_REACTORS
330
47
102
}
330
47
100
AcDbScale
 70
     0
300
1:20
140
1.0
141
20.0
290
     0
  0
SCALE
  5
50
102
{ACAD_REACTORS
330
47
102
}
330
47
100
AcDbScale
 70
     0
300
1:30
140
1.0
141
30.0
290
     0
  0
SCALE
  5
51
102
{ACAD_REACTORS
330
47
102
}
330
47
100
AcDbScale
 70
     0
300
1:40
140
1.0
141
40.0
290
     0
  0
SCALE
  5
52
102
{ACAD_REACTORS
330
47
102
}
330
47
100
AcDbScale
 70
     0
300
1:50
140
1.0
141
50.0
290
     0
  0
SCALE
  5
53
102
{ACAD_REACTORS
330
47
102
}
330
47
100
AcDbScale
 70
     0
300
1:100
140
1.0
141
100.0
290
     0
  0
SCALE
  5
54
102
{ACAD_REACTORS
330
47
102
}
330
47
100
AcDbScale
 70
     0
300
2:1
140
2.0
141
1.0
290
     0
  0
SCALE
  5
55
102
{ACAD_REACTORS
330
47
102
}
330
47
100
AcDbScale
 70
     0
300
4:1
140
4.0
141
1.0
290
     0
  0
SCALE
  5
56
102
{ACAD_REACTORS
330
47
102
}
330
47
100
AcDbScale
 70
     0
300
8:1
140
8.0
141
1.0
290
     0
  0
SCALE
  5
57
102
{ACAD_REACTORS
330
47
102
}
330
47
100
AcDbScale
 70
     0
300
10:1
140
10.0
141
1.0
290
     0
  0
SCALE
  5
58
102
{ACAD_REACTORS
330
47
102
}
330
47
100
AcDbScale
 70
     0
300
100:1
140
100.0
141
1.0
290
     0
  0
SCALE
  5
59
102
{ACAD_REACTORS
330
47
102
}
330
47
100
AcDbScale
 70
     0
300
1/128" = 1'-0"
140
0.0078125
141
12.0
290
     0
  0
SCALE
  5
5A
102
{ACAD_REACTORS
330
47
102
}
330
47
100
AcDbScale
 70
     0
300
1/64" = 1'-0"
140
0.015625
141
12.0
290
     0
  0
SCALE
  5
5B
102
{ACAD_REACTORS
330
47
102
}
330
47
100
AcDbScale
 70
     0
300
1/32" = 1'-0"
140
0.03125
141
12.0
290
     0
  0
SCALE
  5
5C
102
{ACAD_REACTORS
330
47
102
}
330
47
100
AcDbScale
 70
     0
300
1/16" = 1'-0"
140
0.0625
141
12.0
290
     0
  0
SCALE
  5
5D
102
{ACAD_REACTORS
330
47
102
}
330
47
100
AcDbScale
 70
     0
300
3/32" = 1'-0"
140
0.09375
141
12.0
290
     0
  0
SCALE
  5
5E
102
{ACAD_REACTORS
330
47
102
}
330
47
100
AcDbScale
 70
     0
300
1/8" = 1'-0"
140
0.125
141
12.0
290
     0
  0
SCALE
  5
5F
102
{ACAD_REACTORS
330
47
102
}
330
47
100
AcDbScale
 70
     0
300
3/16" = 1'-0"
140
0.1875
141
12.0
290
     0
  0
SCALE
  5
60
102
{ACAD_REACTORS
330
47
102
}
330
47
100
AcDbScale
 70
     0
300
1/4" = 1'-0"
140
0.25
141
12.0
290
     0
  0
SCALE
  5
61
102
{ACAD_REACTORS
330
47
102
}
330
47
100
AcDbScale
 70
     0
300
3/8" = 1'-0"
140
0.375
141
12.0
290
     0
  0
SCALE
  5
62
102
{ACAD_REACTORS
330
47
102
}
330
47
100
AcDbScale
 70
     0
300
1/2" = 1'-0"
140
0.5
141
12.0
290
     0
  0
SCALE
  5
63
102
{ACAD_REACTORS
330
47
102
}
330
47
100
AcDbScale
 70
     0
300
3/4" = 1'-0"
140
0.75
141
12.0
290
     0
  0
SCALE
  5
64
102
{ACAD_REACTORS
330
47
102
}
330
47
100
AcDbScale
 70
     0
300
1" = 1'-0"
140
1.0
141
12.0
290
     0
  0
SCALE
  5
65
102
{ACAD_REACTORS
330
47
102
}
330
47
100
AcDbScale
 70
     0
300
1-1/2" = 1'-0"
140
1.5
141
12.0
290
     0
  0
SCALE
  5
66
102
{ACAD_REACTORS
330
47
102
}
330
47
100
AcDbScale
 70
     0
300
3" = 1'-0"
140
3.0
141
12.0
290
     0
  0
SCALE
  5
67
102
{ACAD_REACTORS
330
47
102
}
330
47
100
AcDbScale
 70
     0
300
6" = 1'-0"
140
6.0
141
12.0
290
     0
  0
SCALE
  5
68
102
{ACAD_REACTORS
330
47
102
}
330
47
100
AcDbScale
 70
     0
300
1'-0" = 1'-0"
140
12.0
141
12.0
290
     0
  0
ENDSEC
  0
EOF
